Oops, an error
Loading. Please wait.

Christmas Eve Bass Tab

52 views 6 this week
no commentswrite comment
1 2 3 4 5
2 more votes to show rating
add to favorites
launch autoscroll
font size
0
reset
guitar tuner
Autoscroll
slow
fast
+/-
esc
set tempo
stop
Help us to improve Ultimate-Guitar.com Take our survey!
×
Author
Difficulty
novice
https://www.youtube.com/watch?v=VWSbswoYppA


Bass Start - 00:17


[Intro]

G|-------------------|-------------------|-------------------|-------------------|
D|-------------------|-------------------|-------------------|-------------------|
A|-------------------|-------------------|-------------------|-------------------|
E|--5-5-5-5-5-5-5-5--|--4-4-4-4-4-4-4-4--|--2-2-2-2-2-2-2-2--|--0-0-0-0-0-0-0-0--|


G|-------------------|-------------------|-------------------|-------------------|
D|-------------------|-------------------|-------------------|-------------------|
A|--5-5-5-5-5-5-5-5--|--4-4-4-4-4-4-4-4--|--2-2-2-2-2-2-2-2--|-------------------|
E|-------------------|-------------------|-------------------|--0-0-0-0-0-0-0-0--|


[Verse 1]

G|-------------------|-------------------|-------------------|-------------------|
D|-------------------|-------------------|-------------------|-------------------|
A|-------------------|-------------------|-------------------|-------------------|
E|--5-5-5-5-5-5-5-5--|--4-4-4-4-4-4-4-4--|--2-2-2-2-2-2-2-2--|--0-0-0-0-0-0-0-0--|


G|-------------------|-------------------|-------------------|-------------------|
D|-------------------|-------------------|-------------------|-------------------|
A|--5-5-5-5-5-5-5-5--|--4-4-4-4-4-4-4-4--|--2-2-2-2-2-2-2-2--|-------------------|
E|-------------------|-------------------|-------------------|--0-0-0-0-0-0-0-0--|


[Verse 2]

G|-------------------|-------------------|-------------------|-------------------|
D|-------------------|-------------------|-------------------|-------------------|
A|-------------------|-------------------|-------------------|-------------------|
E|--5-5-5-5-5-5-5-5--|--4-4-4-4-4-4-4-4--|--2-2-2-2-2-2-2-2--|--0-0-0-0-0-0-0-0--|


G|-------------------|-------------------|--------------------|-------------------|
D|-------------------|-------------------|--------------------|-------------------|
A|--5-5-5-5-5-5-5-5--|--4-4-4-4-4-4-4-4--|--2-2-2-2-2-2-2-2/--|--7-7-7-7-7-6-6-6--|
E|-------------------|-------------------|--------------------|-------------------|


[Verse 3]

G|-------------------|-------------------|-------------------|-------------------|
D|-------------------|-------------------|-------------------|-------------------|
A|--5-5-5-5-5-5-5-5--|--5-5-5-5-5-5-5-5--|--4-4-4-4-4-4-4-4--|-------------------|
E|-------------------|-------------------|-------------------|--2-2-2-2-2-2-2-2--|


G|-------------------|-------------------|-------------------|-------------------|
D|-------------------|-------------------|-------------------|-------------------|
A|--2-2-2-2-2-2-2-2--|--2-2-2-2-2-2-2-2--|-------------------|-------------------|
E|-------------------|-------------------|--0-0-0-0-0-0-0-0--|--0-0-0-0-0-0-0-0--|


[Verse 4]

G|-------------------|-------------------|-------------------|-------------------|
D|-------------------|-------------------|-------------------|-------------------|
A|-------------------|-------------------|-------------------|-------------------|
E|--5-5-5-5-5-5-5-5--|--4-4-4-4-4-4-4-4--|--2-2-2-2-2-2-2-2--|--0-0-0-0-0-0-0-0--|


G|-------------------|-------------------|-------------------|-------------------|-------------------|
D|-------------------|-------------------|-------------------|-------------------|-------------------|
A|--5-5-5-5-5-5-5-5--|--4-4-4-4-4-4-4-4--|--2-2-2-2-2-2-2-2--|-------------------|-------------------|
E|-------------------|-------------------|-------------------|--0-0-0-0-0-0-0-0--|--0-0-0-0-0-0-0-0--|


[Instrumental]

G|-------------------|-------------------|-------------------|-------------------|
D|-------------------|-------------------|-------------------|-------------------|
A|-------------------|-------------------|-------------------|-------------------|
E|--5-5-5-5-5-5-5-5--|--4-4-4-4-4-4-4-4--|--2-2-2-2-2-2-2-2--|--0-0-0-0-0-0-0-0--|


G|-------------------|-------------------|-------------------|-------------------|
D|-------------------|-------------------|-------------------|-------------------|
A|--5-5-5-5-5-5-5-5--|--4-4-4-4-4-4-4-4--|--2-2-2-2-2-2-2-2--|-------------------|
E|-------------------|-------------------|-------------------|--0-0-0-0-0-0-0-0--|


G|----------------|----------------|----------------|----------------|
D|----------------|----------------|----------------|----------------|
A|--------r-------|--------r-------|--------r-------|--------r-------|
E|----------------|----------------|----------------|----------------|


G|----------------|----------------|----------------|----------------|
D|----------------|----------------|----------------|----------------|
A|--------r-------|--------r-------|--------r-------|--------r-------|
E|----------------|----------------|----------------|----------------|


[Verse 5]

G|-------------------|-------------------|-------------------|-------------------|
D|-------------------|-------------------|-------------------|-------------------|
A|--5-5-5-5-5-5-5-5--|--5-5-5-5-5-5-5-5--|--4-4-4-4-4-4-4-4--|-------------------|
E|-------------------|-------------------|-------------------|--2-2-2-2-2-2-2-2--|


G|-------------------|-------------------|-------------------|-------------------|
D|-------------------|-------------------|-------------------|-------------------|
A|--2-2-2-2-2-2-2-2--|--2-2-2-2-2-2-2-2--|-------------------|-------------------|
E|-------------------|-------------------|--0-0-0-0-0-0-0-0--|--0-0-0-0-0-0-0-0--|


[Verse 6] 

G|-------------------|-------------------|-------------------|-------------------|
D|-------------------|-------------------|-------------------|-------------------|
A|-------------------|-------------------|-------------------|-------------------|
E|--5-5-5-5-5-5-5-5--|--4-4-4-4-4-4-4-4--|--2-2-2-2-2-2-2-2--|--0-0-0-0-0-0-0-0--|


G|-------------------|-------------------|-------------------|-------------------|
D|-------------------|-------------------|-------------------|-------------------|
A|--5-5-5-5-5-5-5-5--|--4-4-4-4-4-4-4-4--|--2-2-2-2-2-2-2-2--|-------------------|
E|-------------------|-------------------|-------------------|--0-0-0-0-0-0-0-0--|


[Verse 7]

G|-------------------|-------------------|-------------------|-------------------|
D|-------------------|-------------------|-------------------|-------------------|
A|-------------------|-------------------|-------------------|-------------------|
E|--5-5-5-5-5-5-5-5--|--4-4-4-4-4-4-4-4--|--2-2-2-2-2-2-2-2--|--0-0-0-0-0-0-0-0--|


G|-------------------|-------------------|-------------------|-------------------|
D|-------------------|-------------------|-------------------|-------------------|
A|--5-5-5-5-5-5-5-5--|--4-4-4-4-4-4-4-4--|--2-2-2-2-2-2-2-2--|-------------------|
E|-------------------|-------------------|-------------------|--0-0-0-0-0-0-0-0--|


[Verse 8]

G|-------------------|-------------------|-------------------|-------------------|
D|-------------------|-------------------|-------------------|-------------------|
A|-------------------|-------------------|-------------------|-------------------|
E|--5-5-5-5-5-5-5-5--|--4-4-4-4-4-4-4-4--|--2-2-2-2-2-2-2-2--|--0-0-0-0-0-0-0-0--|


G|-------------------|-------------------|-------------------|-------------------|
D|-------------------|-------------------|-------------------|-------------------|
A|--5-5-5-5-5-5-5-5--|--4-4-4-4-4-4-4-4--|--2-2-2-2-2-2-2-2--|-------------------|
E|-------------------|-------------------|-------------------|--0-0-0-0-0-0-0-0--|


[Outro] 

(repeat until the end)
G|-------------------|-------------------|-------------------|-------------------|
D|-------------------|-------------------|-------------------|-------------------|
A|-------------------|-------------------|-------------------|-------------------|
E|--5-5-5-5-5-5-5-5--|--4-4-4-4-4-4-4-4--|--2-2-2-2-2-2-2-2--|--0-0-0-0-0-0-0-0--|


G|-------------------|-------------------|-------------------|-------------------|
D|-------------------|-------------------|-------------------|-------------------|
A|--5-5-5-5-5-5-5-5--|--4-4-4-4-4-4-4-4--|--2-2-2-2-2-2-2-2--|-------------------|
E|-------------------|-------------------|-------------------|--0-0-0-0-0-0-0-0--|



************************

| /  slide up
| r  rest

************************

in regular sequence!
Suggest correction
Give kudos to tab author, rate the tab!
1 2 3 4 5
comments
print report bad tab
guest
You may want to rate the tab now too:
select rating
Wanna post a correction for this tab? Suggest correction