Oops, an error
Loading. Please wait.

The Theme From Big Wave Bass Tab

25 views 1 this week
no commentswrite comment
1 2 3 4 5
3 more votes to show rating
add to favorites
launch autoscroll
font size
0
reset
guitar tuner
Autoscroll
slow
fast
+/-
esc
set tempo
stop
Help us to improve Ultimate-Guitar.com Take our survey!
×
Author
Difficulty
novice
Song : https://www.youtube.com/watch?v=xGbJEiEM7mI


[Intro]

G|-------------------|-------------------|-------------------|-------------------|
D|-------------------|-------------------|-------------------|-------------------|
A|--3-3-3-3-3-3-3-3--|--3-3-3-3-3-3-3-3--|--3-3-3-3-3-3-3-3--|--3-3-3-3-3-3-3-3--|
E|-------------------|-------------------|-------------------|-------------------|


G|-------------------|-------------------|-------------------|-------------------|
D|-------------------|-------------------|-------------------|-------------------|
A|--3-3-3-3-3-3-3-3--|--3-3-3-3-3-3-3-3--|--3-3-3-3-3-3-3-3--|--3-3-3-3-3---3----|
E|-------------------|-------------------|-------------------|------------3---3--|


[Verse 1]

G|-------------------|-------------------|-------------------|-------------------|
D|-------------------|-------------------|-------------------|-------------------|
A|--3-3-3-3-3-3-3-3--|--3-3-3-3-3-3-3-3--|--3-3-3-3-3-3-3-3--|--3-3-3-3-3-3-3-3--|
E|-------------------|-------------------|-------------------|-------------------|


G|-------------------|-------------------|-------------------|-------------------|
D|-------------------|-------------------|-------------------|-------------------|
A|--3-3-3-3-3-3-3-3--|--3-3-3-3-3-3-3-3--|--3-3-3-3-3-3------|--0-0-0-0-0-0-4-0--|
E|-------------------|-------------------|--------------3-4--|-------------------|


G|-------------------|-------------------|-------------------|-------------------|
D|-------------------|-------------------|-------------------|-------------------|
A|--5-5-5-5-5-5-5-5--|-------------------|--3-3-3-3-3-3-3----|--0-0-0-0-0-0-0-0--|
E|-------------------|--3-3-3-3-3-3-3-3--|----------------3--|-------------------|


G|-------------------|-------------------|-------------------|--2-x-x-2-----|
D|-------------------|-------------------|-------------------|----------2---|
A|--5-5-5-5-5-5-5-5--|-------------------|--3-3-3-3-3-3---0--|------------3-|
E|-------------------|--3-3-3-3-3-3-3-3--|--------------3----|--------------|


[Chorus]

G|-----------------|-----------------|-----------------|-----------------|
D|-----------------|-----------------|-----------------|-----------------|
A|-5-5-5-5-5-------|-3-3-3-3---0-0-0-|-5-5-5-5-5-------|-3-3-3-3-3-0-0-0-|
E|-----------3-3-3-|---------0-------|-----------3-3-3-|-----------------|


G|-----------------|-----------------|-----------------|--------------------|
D|-----------------|-----------------|-----------------|--------------------|
A|-5-5-5-5-5-------|-3-3-3-3-3-0-0-0-|-5-5-5-5-5-4-4-4-|-3-3-3-3-3-3-3-3-3--|
E|-----------3-3-3-|-----------------|-----------------|--------------------|


G|-------------------|-------------------|-------------------|
D|-------------------|-------------------|-------------------|
A|--3-3-3-3-3-3-3-3--|--3-3-3-3-3-3-3-3--|--3-3-3-3-3-3-3-3--|
E|-------------------|-------------------|-------------------|


[Verse 2]

G|-------------------|-------------------|-------------------|-------------------|
D|-------------------|-------------------|-------------------|-------------------|
A|--3-3-3-3-3-3-3-3--|--3-3-3-3-3-3-3-3--|--3-3-3-3-3-3-3-3--|--3-3-3-3-3-3-3-3--|
E|-------------------|-------------------|-------------------|-------------------|


G|-------------------|-------------------|-------------------|-------------------|
D|-------------------|-------------------|-------------------|-------------------|
A|--3-3-3-3-3-3-3-3--|--3-3-3-3-3-3-3-3--|--3-3-3-3-3--------|--0-0-0-0-0-0-0-0--|
E|-------------------|-------------------|------------0-3-4--|-------------------|


G|-------------------|-------------------|-------------------|-------------------|
D|-------------------|-------------------|-------------------|-------------------|
A|--5-5-5-5-5-5-5-5--|-------------------|--3-3-3-3-3-3-3-3--|--0-0-0-0-0-0-4-0--|
E|-------------------|--3-3-3-3-3-3-3-3--|-------------------|-------------------|


G|-------------------|-------------------|-------------------|----------9-12-|
D|-------------------|-------------------|-------------------|--7-x-x-7------|
A|--5-5-5-5-5-5-5-5--|-------------------|--3-3-3-3-3-----0--|---------------|
E|-------------------|--3-3-3-3-3-3-3-3--|------------0-3----|---------------|


[Chorus]

G|-----------------|-----------------|-----------------|-----------------|
D|-----------------|-----------------|-----------------|-----------------|
A|-5-5-5-5-5-------|-3-3-3-3-0-0-0-0-|-5-5-5-5-5-------|-3-3-3-3-0-0-0-0-|
E|-----------3-3-3-|-----------------|-----------3-3-3-|-----------------|


G|-----------------|-----------------|-----------------|--------------------|
D|-----------------|-----------------|-----------------|--------------------|
A|-5-5-5-5-5-------|-3-3-3-3-3-0-0-0-|-5-5-5-5-5-4-4-4-|-3-3-3-3-3-3-3-3-3--|
E|-----------3-3-3-|-----------------|-----------------|--------------------|


G|-------------------|-------------------|-------------------|
D|-------------------|-------------------|-------------------|
A|--3-3-3-3-3-3-3-3--|--3-3-3-3-3-3-3-3--|--3-3-3-3-3-3-3-3--|
E|-------------------|-------------------|-------------------|


G|-------------------|-------------------|-------------------|-------------------|
D|-------------------|-------------------|-------------------|--------------2----|
A|--3-3-3-3-3-3-3-3--|--3-3-3-3-3-3-3-3--|--3-3-3-3-3--------|--0-0-0-0-4-0---0--|
E|-------------------|-------------------|------------0-3-4--|-------------------|


[Instrumental]

G|-------------------|-------------------|-------------------|-------------------|
D|-------------------|-------------------|-------------------|-------------------|
A|--5-5-5-5-5-5-5-5--|-------------------|--3-3-3-3-3-3-3-3--|--0-0-0-0-0-0-0-0--|
E|-------------------|--3-3-3-3-3-3-3-3--|-------------------|-------------------|


G|-------------------|-------------------|-------------------|-------------------|
D|-------------------|-------------------|-------------------|--------------2----|
A|--5-5-5-5-5-5-5-5--|-------------------|--3-3-3-3-3-3---0--|--0-0-0-0-4-0---0--|
E|-------------------|--3-3-3-3-3-3-3-3--|--------------3----|-------------------|


[Verse 3]

G|-------------------|-------------------|-------------------|-------------------|
D|-------------------|-------------------|-------------------|-------------------|
A|--5-5-5-5-5-5-5-5--|-------------------|--3-3-3-3-3-3-3-3--|--0-0-0-0-0-0-4-0--|
E|-------------------|--3-3-3-3-3-3-3-3--|-------------------|-------------------|


G|-------------------|-------------------|-----------------|--------------|
D|-------------------|-------------------|-----------------|--7-x-x-7-----|
A|--5-5-5-5-5-5-5-5--|-------------------|--3-3-3-3-3---0--|----------3-4-|
E|-------------------|--3-3-3-3-3-3-3-3--|------------3----|--------------|


[Chorus]

G|-----------------|-----------------|-----------------|-----------------|
D|-----------------|-----------------|-----------------|-----------------|
A|-5-5-5-5-5-------|-3-3-3-3-3-0-0-0-|-5-5-5-5-5-------|-3-3-3-3---0-0-0-|
E|-----------3-3-3-|-----------------|-----------3-3-3-|---------0-------|


G|-----------------|-----------------|-----------------|---------------------------------|
D|-----------------|-----------------|-----------------|---------------2-0-0-0-0-0-------|
A|-5-5-5-5-5-------|-3-3-3-3---0-0-0-|-5-5-5-5-5-------|-3-3-----0-0-0-------------------|
E|-----------3-3-3-|---------3-------|-----------3-3-3-|-----0-3-------------------3-3-3-|


G|-----------------|-------------6---|-------------|---------------|--------------|
D|-----------------|-----------------|-------------|--7-x-x-7-x-x--|--7-x-x-7-----|
A|-3-3-3-3-3-0-0-0-|-5-5-5-5-5-4---4-|-3-----/14\--|---------------|----------3-4-|
E|-----------------|-----------------|-------------|---------------|--------------|


G|-----------------|-----------------|-----------------|-----------------|
D|-----------------|-----------------|-----------------|-----------------|
A|-5-5-5-5-5-------|-3-3-3-3-3-0-0-0-|-5-5-5-5-5-------|-3-3-----0-0-0-7-|
E|-----------3-3-3-|-----------------|-----------3-3-3-|-----0-3---------|


G|-----------------|-----------------|-----------------|-------------|--2-x-x-2-----|
D|-----------------|-----------------|-----------------|-------------|----------2---|
A|-5-5-5-5-5-------|-3-3-3-3-3-0-0-0-|-5-5-5-5-5-4-4-4-|-3-----/17\--|------------3-|
E|-----------3-3-3-|-----------------|-----------------|-------------|--------------|


G|-----------------|-----------------|-----------------|-----------------|
D|-----------------|-----------------|-----------------|-----------------|
A|-5-5-5-5-5-------|-3-3-3-3-3-0-0-0-|-5-5-5-5-5-------|-3-3-3-3---0-0-0-|
E|-----------3-3-3-|-----------------|-----------3-3-3-|---------0-------|


G|-----------------|-----------------|-----------------|----|--------------|
D|-----------------|-----------------|-----------------|----|--7-x-x-7-----|
A|-5-5-5-5-5-------|-3-3-3-3-3-0-0-7-|-5-5-5-5-5-4-4-4-|-3--|----------3-4-|
E|-----------3-3-3-|-----------------|-----------------|----|--------------|


G|-----------------|-----------------|-----------------|-----------------|
D|-----------------|-----------------|-----------------|-----------------|
A|-5-5-5-5-5-------|-3-3-3-3-3-0-0-0-|-5-5-5-5-5-------|-3-3-3-3---0-0-0-|
E|-----------3-3-3-|-----------------|-----------3-3-3-|---------0-------|

                                                                 (fade out)
G|-----------------|-----------------|-----------------|----|--------------|
D|-----------------|-----------------|-----------------|----|--7-x-x-7-----|
A|-5-5-5-5-5-------|-3-3-3-3-3-0-0-7-|-5-5-5-5-5-4-4-4-|-3--|----------3-4-|
E|-----------3-3-3-|-----------------|-----------------|----|--------------|



*************************

| / : slide up
| \ : slide down
| x : dead note

*************************

in regular sequence!
Suggest correction
Give kudos to tab author, rate the tab!
1 2 3 4 5
comments
print report bad tab
guest
You may want to rate the tab now too:
select rating
Wanna post a correction for this tab? Suggest correction