Oops, an error
Loading. Please wait.

Glass Vase Cello Case tab

version 2
version 2

Whole song

6,279 views 1 this week
3 commentsread comments
1 2 3 4 5
x 8
add to favorites
×
Save as Personal and add changes to this tab that will be seen only by you. Learn more ›
×
You can save this tab as Personal to edit and correct it or add notes. All changes will be seen only by you. Learn more »
launch autoscroll
font size
0
reset
how to read this tab
guitar tuner
edit
Autoscroll
slow
fast
+/-
esc
set tempo
stop
Author
Tattle Tale: Glass Vase Cello Case
Standard Tuning

Notes:
  Standard Tuning

Key:
  \  strum down
  /  strum up



Riff 1

e]----------------------------------------------------------------|
B]----------------------3-----3-----------------------------------|
G]----4-0---4-0---------------------------------------------------|
D]--2-----2-----2-0-4-----4----4-----4-0---4-0-----5-0---5-0------|
A]--------------------5-----5----5-2-----2-----2-3-----3-----3-0--|
E]----------------------------------------------------------------|



Riff 2

e]--7---7---7-7-7-7--|--7----------------------|
B]--8---8---8-8-8-8--|--8----------------------|
G]--9---9---9-9-9-9--|--9-5---5-5-5-5-5-5-5-5--|
D]--9---9---9-9-9-9--|--9-5---5-5-5-5-5-5-5-5--|
A]--7---7---7-7-7-7--|--7-3---3-3-3-3-3-3-3-3--|
E]-------------------|-------------------------|
    \   \   \ / \ /     \ \   \ \ \ \ \ \ \ /   

e]--3---3---3-3-3-3--|--3-10---10-10-10-10-10-10-10-10--|
B]--3---3---3-3-3-3--|--3-10---10-10-10-10-10-10-10-10--|
G]--4---4---4-4-4-4--|--4-11---11-11-11-11-11-11-11-11--|
D]--5---5---5-5-5-5--|--5-12---12-12-12-12-12-12-12-12--|
A]--5---5---5-5-5-5--|--5-12---12-12-12-12-12-12-12-12--|
E]--3---3---3-3-3-3--|--3-10---10-10-10-10-10-10-10-10--|
    \   \   \ / \ /     \  \   \  \  \  \  \  \  \  /



Bridge (softly)

e]--3-3-3-3-3-3-3-3--|--3-3-3-3-3-3-3-3--|
B]--3-3-3-3-3-3-3-3--|--3-3-3-3-3-3-3-3--|
G]--4-4-4-4-4-4-4-4--|--4-4-4-4-4-4-4-4--|
A]--5-5-5-5-5-5-5-5--|--5-5-5-5-5-5-5-5--|
D]--5-5-5-5-5-5-5-5--|--5-5-5-5-5-5-5-5--|
    \ \ \ \ \ \ \ \     \ \ \ \ \ \ \ \



Riff 1 x10

1....
2....
3....
4....
5....
6....
7....
8-Breathe into my hands, I'll cup them like a glass to drink from.
9....
10...


Riff 2 x4

Bridge

Riff 1 x12

1....
2....
3-Are you still, still breathing? Are you still breathing?
4-Are you still, still breathing? Are you still breathing?
5-Breathe into my hands, I'll cup them like a glass to drink from.
6....
7....
8....
9....
10...
11...
12...

            
            
Suggest correction
Creating personal tab
Creating personal tab
You can edit any tab online and save it as your Personal.

You can edit, replace or remove any tab part or add personal notes – all changes will be seen only by you.

Personal tabs can be accessed anytime from any device, even offline.
Learn more »
comments
print report bad tab
3 comments total.
0 reply
cholewicki 10 Aug 04, 2008 10:17 PM

great tab! one note is missing, however : in riff 1,

E]----------------------------------------------------------------|
B]----------------------3-----3-----------------------------------|
G]----4-0---4-0---------------------------------------------------|
D]--2-----2-----2-0-4-----4----4-----4-0---4-0--0--5-0---5-0------|
A]--------------------5-----5----5-2-----2-----2-3-----3-----3-0--|
E]----------------------------------------------------------------|

0 reply
cholewicki 10 Aug 04, 2008 10:27 PM

SORRY... it should be a 5 instead of the 0:

E]----------------------------------------------------------------|
B]----------------------3-----3-----------------------------------|
G]----4-0---4-0---------------------------------------------------|
D]--2-----2-----2-0-4-----4----4-----4-0---4-0-----5-0---5-0------|
A]--------------------5-----5----5-2-----2-----253-----3-----3-0--|
E]----------------------------------------------------------------|


it sounds like they kinda slide the 2/5 there...

+1 reply
cholewicki 10 Aug 04, 2008 10:29 PM

OK LAST TIME I PROMISE, i kept messing up my own correction, i really meant >>>

E]----------------------------------------------------------------|
B]----------------------3-----3-----------------------------------|
G]----4-0---4-0---------------------------------------------------|
D]--2-----2-----2-0-4-----4----4-----4-0---4-0--5--5-0---5-0------|
A]--------------------5-----5----5-2-----2-----2-3-----3-----3-0--|
E]----------------------------------------------------------------|


sorry bout the thousand comments...

guest
You may want to rate the tab now too:
select rating
Wanna post a correction for this tab? Suggest correction