Oops, an error
Loading. Please wait.

Sunshine Harry tab

by Tauk
25 views 1 this week
no commentswrite comment
1 2 3 4 5
3 more votes to show rating
add to favorites
×
Save as Personal and add changes to this tab that will be seen only by you. Learn more ›
×
You can save this tab as Personal to edit and correct it or add notes. All changes will be seen only by you. Learn more »
launch autoscroll
font size
0
reset
how to read this tab
guitar tuner
edit
Autoscroll
slow
fast
+/-
esc
set tempo
stop
Author
Difficulty
[Intro] 
(0:00 - 0:36)
E|---------------------|---------------------|---------------------|---------------------|
B|------9----11---9----|-----------9----11---|------9----11---9----|------9--------------|
G|-10------------------|-9-------------------|-10------------------|-9---------9---------|
D|---------------------|---------------------|---------------------|---------------------|
A|---------------------|---------------------|---------------------|---------------------|
E|---------------------|---------------------|---------------------|---------------------|

E|---------------------|---------------------|---------------------|---------------------|
B|------9----11---9----|-----------9----11---|------9----11---9----|-----------9---------|
G|-10------------------|-9-------------------|-10------------------|-9-------------------|
D|---------------------|---------------------|---------------------|---------------------|
A|---------------------|---------------------|---------------------|---------------------|
E|---------------------|---------------------|---------------------|---------------------|

E|---------------------|---------------------|---------------------|---------------------|
B|------9----11---9----|-----------9----11---|------9----11---9----|------9--------------|
G|-10------------------|-9-------------------|-10------------------|-9---------9---------|
D|---------------------|---------------------|---------------------|---------------------|
A|---------------------|---------------------|---------------------|---------------------|
E|---------------------|---------------------|---------------------|---------------------|

E|---------------------|---------------------|---------------------|---------------------|
B|------9----11---9----|-----------9----11---|------9----11---9----|---------------------|
G|-10------------------|-9-------------------|-10------------------|-9-------------------|
D|---------------------|---------------------|---------------------|---------------------|
A|---------------------|---------------------|---------------------|---------------------|
E|---------------------|---------------------|---------------------|---------------------|

E|---------------------|---------------------|---------------------|---------------------|
B|------9----11---9----|-----------9----11---|------9----11---9----|------9--------------|
G|-10------------------|-9-------------------|-10------------------|-9---------9---------|
D|---------------------|---------------------|---------------------|---------------------|
A|---------------------|---------------------|---------------------|---------------------|
E|---------------------|---------------------|---------------------|---------------------|

E|---------------------|---------------------|---------------------|---------------------|
B|------9----11---9----|-----------9----11---|------9----11---9----|---------------------|
G|-10------------------|-9-------------------|-10------------------|-9-------------------|
D|---------------------|---------------------|---------------------|---------------------|
A|---------------------|---------------------|---------------------|---------------------|
E|---------------------|---------------------|---------------------|---------------------|

E|---------------------|---------------------|---------------------|---------------------|
B|-----------1---------|----------------1----|-----------1---------|---------------------|
G|------1---------1----|-----------1---------|------1---------1----|------1--------------|
D|-3-------------------|-2-------------------|-3-------------------|-2---------2---------|
A|---------------------|---------------------|---------------------|---------------------|
E|---------------------|---------------------|---------------------|---------------------|

E|---------------------|---------------------|---------------------|---------------------|
B|-----------1---------|----------------1----|-----------1---------|---------------------|
G|------1---------1----|-----------1---------|------1---------1----|---------------------|
D|-3-------------------|-2-------------------|-3-------------------|-2-------------------|
A|---------------------|---------------------|---------------------|---------------------|
E|---------------------|---------------------|---------------------|---------------------|

[Bridge] 
(0:36 - 0:44)
E|---------------------|---------------------|---------------------|---------------------|
B|------4---------4----|------4---------4----|------4---------4----|------4---------4----|
G|-5---------5---------|-5---------5---------|-5---------5---------|-5---------5---------|
D|---------------------|---------------------|---------------------|---------------------|
A|---------------------|---------------------|---------------------|---------------------|
E|---------------------|---------------------|---------------------|---------------------|

E|---------------------|---------------------|---------------------|---------------------|
B|------4---------4----|------4---------4----|------4---------4----|------4---------4----|
G|-5---------5---------|-5---------5---------|-5---------5---------|-5---------5---------|
D|---------------------|---------------------|---------------------|---------------------|
A|---------------------|---------------------|---------------------|---------------------|
E|---------------------|---------------------|---------------------|---------------------|

E|---------------------|---------------------|---------------------|-3---------4----3----|
B|------4--------------|---------------------|------3----5---------|------6--------------|
G|-5---------5---------|----------------3----|-5-------------------|---------------------|
D|---------------------|-3----5----6---------|---------------------|---------------------|
A|---------------------|---------------------|---------------------|---------------------|
E|---------------------|---------------------|---------------------|---------------------|

[Verse 1] 
(0:44 - 1:34)
E|---------------------|---------------------|---------------------|---------------------|
B|-----------1---------|---------------------|-----------1---------|---------------------|
G|-----------1---------|---------------------|-----------1---------|---------------------|
D|----------------3----|-----------2---------|----------------3----|-----------2----5----|
A|---------------------|---------------------|---------------------|---------------------|
E|-1----1--------------|-0----0--------------|-1----1--------------|-0----0--------------|

E|---------------------|---------------------|---------------------|---------------------|
B|-----------1---------|---------------------|-----------1---------|---------------------|
G|-----------1---------|---------------------|-----------1---------|---------------------|
D|----------------3----|-----------2---------|----------------3----|-----------2---------|
A|---------------------|---------------------|---------------------|---------------------|
E|-1----1--------------|-0----0--------------|-1----1--------------|-0----0--------------|

E|---------------------|-3-------------------|---------------------|-3--------------6----|
B|-6-------------------|------6--------------|---------------------|---------------------|
G|-----------5----3----|---------------------|---------------------|------5----3---------|
D|---------------------|-----------6----5----|-----------3----6----|---------------------|
A|---------------------|---------------------|-3-------------------|---------------------|
E|---------------------|---------------------|---------------------|---------------------|

E|-3-------------------|---------------------|---------------------|---------------------|
B|---------------------|---------------------|---------------------|---------------------|
G|---------------------|-6----5----3----5----|---------------------|---------------------|
D|---------------------|---------------------|-----------3----2----|-5----3---------6----|
A|---------------------|---------------------|---------------------|---------------------|
E|---------------------|---------------------|---------------------|---------------------|

E|---------------------|----------------6----|-3-------------------|---------------------|
B|---------------------|---------------------|---------------------|---------------------|
G|------3--------------|-5----3--------------|------5----6----3----|-5-------------------|
D|-5---------6---------|---------------------|---------------------|---------------------|
A|---------------------|---------------------|---------------------|---------------------|
E|---------------------|---------------------|---------------------|---------------------|

E|---------------------|---------------------|---------------------|---------------------|
B|---------------------|---------------------|---------------------|---------------------|
G|------5---------5----|-----------5---------|-5---------5---------|-5--------------5----|
D|-3---------6---------|-5--------------6----|------5---------6----|------5--------------|
A|---------------------|---------------------|---------------------|---------------------|
E|---------------------|---------------------|---------------------|---------------------|

E|---------------------|---------------------|---------------------|---------------------|
B|---------------------|---------------------|---------------------|---------------------|
G|------5--------------|------5---------5----|-----------5---------|-5-------------------|
D|-6---------5----6----|-----------6---------|-5--------------6----|------5----3----5----|
A|---------------------|-7-------------------|---------------------|---------------------|
E|---------------------|---------------------|---------------------|---------------------|

E|---------------------|-----------3---------|-4----3--------------|---------------------|
B|----------------3----|-5--------------6----|---------------------|---------------------|
G|------3----5---------|---------------------|---------------------|-5----7----8----7----|
D|-6-------------------|---------------------|---------------------|---------------------|
A|---------------------|---------------------|---------------------|---------------------|
E|---------------------|---------------------|---------------------|---------------------|

E|---------------------|---------------------|---------------------|---------------------|
B|---------------------|---------------------|---------------------|---------------------|
G|-5---------3----5----|-6----5---------1----|-3----4----3----1----|---------------------|
D|---------------------|---------------------|---------------------|-3----1----3----3----|
A|---------------------|---------------------|---------------------|---------------------|
E|---------------------|---------------------|---------------------|---------------------|

E|---------------------|---------------------|---------------------|---------------------|
B|-1-------------------|---------------------|---------------------|---------------------|
G|-1--------------5----|-7----8----7----5----|------3----5----6----|-5---------1----3----|
D|---------------------|---------------------|---------------------|---------------------|
A|------3--------------|---------------------|---------------------|---------------------|
E|---------------------|---------------------|---------------------|---------------------|

[Verse 2] 
(1:34 - 1:56)
E|---------------------|---------------------|---------------------|---------------------|
B|---------------------|-----------1---------|---------------------|-----------1---------|
G|-4----3----1---------|-----------1---------|---------------------|-----------1---------|
D|----------------3----|----------------3----|-----------2---------|----------------3----|
A|---------------------|---------------------|---------------------|---------------------|
E|---------------------|-1----1--------------|-0----0--------------|-1----1--------------|

E|---------------------|---------------------|---------------------|---------------------|
B|---------------------|-----------1---------|---------------------|-----------1---------|
G|---------------------|-----------1---------|---------------------|-----------1---------|
D|-----------2----5----|----------------3----|-----------2---------|----------------3----|
A|---------------------|---------------------|---------------------|---------------------|
E|-0----0--------------|-1----1--------------|-0----0--------------|-1----1--------------|

E|---------------------|---------------------|---------------------|-----------8---------|
B|---------------------|-11---8---------11---|-8----11---8----11---|-8----8---------9----|
G|---------------------|-----------9---------|---------------------|---------------------|
D|-----------2---------|---------------------|---------------------|---------------------|
A|---------------------|---------------------|---------------------|---------------------|
E|-0----0--------------|---------------------|---------------------|---------------------|

E|---------------------|------9----8---------|---------------------|---------------------|
B|-8-------------------|----------------11---|-8----11--------11---|----------------13---|
G|------10---9---------|---------------------|-----------10--------|-9---------13--------|
D|----------------8----|---------------------|---------------------|---------------------|
A|---------------------|-11------------------|---------------------|---------------------|
E|---------------------|---------------------|---------------------|---------------------|

E|---------------------|---------------------|---------------------|-----------8---------|
B|------13-------------|-11---8---------11---|-8----11---8----11---|-8----8---------9----|
G|-12--------10--------|-----------9---------|---------------------|---------------------|
D|---------------------|---------------------|---------------------|---------------------|
A|---------------------|---------------------|---------------------|---------------------|
E|---------------------|---------------------|---------------------|---------------------|

E|---------------------|------9----8---------|---------------------|---------------------|
B|-8-------------------|----------------11---|-8----11--------11---|----------------13---|
G|------10---9---------|---------------------|-----------10--------|-9---------13--------|
D|----------------8----|---------------------|---------------------|---------------------|
A|---------------------|-11------------------|---------------------|---------------------|
E|---------------------|---------------------|---------------------|---------------------|

[Verse 3] 
(1:56 - 2:42)
E|---------------------|---------------------|---------------------|---------------------|
B|------13-------------|---------------------|-----------9----8----|------8--------------|
G|-12--------10--------|---------------------|-10---10-------------|-9---------9---------|
D|---------------------|-3-------------------|---------------------|---------------------|
A|---------------------|-3-------------------|---------------------|---------------------|
E|---------------------|-1-------------------|---------------------|---------------------|

E|---------------------|---------------------|---------------------|---------------------|
B|-----------6----4----|---------------------|---------------------|-1-------------------|
G|-6----6--------------|------5--------------|-4-------------------|------4--------------|
D|---------------------|-6---------6---------|------3---------3----|----------------3----|
A|---------------------|---------------------|---------------------|---------------------|
E|---------------------|---------------------|-----------1---------|-----------1---------|

E|---------------------|---------------------|---------------------|---------------------|
B|---------------------|-9----11--------8----|---------------------|-6----4--------------|
G|-4---------10---10---|-----------9---------|-9---------6----6----|----------------5----|
D|---------------------|---------------------|---------------------|-----------6---------|
A|---------------------|---------------------|---------------------|---------------------|
E|---------------------|---------------------|---------------------|---------------------|

E|---------------------|---------------------|---------------------|----------------8----|
B|---------------------|---------------------|---------------------|---------------------|
G|-----------4---------|-----------4----5----|-4--------------4----|------10-------------|
D|-6--------------3----|------3--------------|------3--------------|---------------------|
A|---------------------|---------------------|---------------------|---------------------|
E|---------------------|-1-------------------|-----------1---------|---------------------|

E|---------------------|---------------------|---------------------|---------------------|
B|------8--------------|-----------6----4----|---------------------|---------------------|
G|-9---------9---------|-6----6--------------|------5--------------|-4-------------------|
D|---------------------|---------------------|-6---------6---------|------3---------3----|
A|---------------------|---------------------|---------------------|---------------------|
E|---------------------|---------------------|---------------------|-----------1---------|

E|---------------------|---------------------|---------------------|---------------------|
B|---------------------|---------------------|------9----11--------|-8-------------------|
G|-4----5----4---------|------4---------10---|-10-------------9----|------9---------6----|
D|----------------3----|---------------------|---------------------|---------------------|
A|---------------------|---------------------|---------------------|---------------------|
E|---------------------|-1-------------------|---------------------|---------------------|

E|---------------------|---------------------|---------------------|---------------------|
B|------6----4---------|---------------------|----------------1----|---------------------|
G|-6-------------------|-5--------------4----|---------------------|-4-------------------|
D|----------------6----|------6--------------|-3---------3---------|------3---------3----|
A|---------------------|---------------------|---------------------|---------------------|
E|---------------------|---------------------|------1--------------|-----------1---------|

E|-1-------------------|---------------------|---------------------|---------------------|
B|------1--------------|----------------1----|---------------------|------1--------------|
G|-----------4---------|-----------4---------|-4-------------------|-4-------------------|
D|----------------3----|------3--------------|------3---------3----|---------------------|
A|---------------------|---------------------|---------------------|---------------------|
E|---------------------|-1-------------------|-----------1---------|---------------------|

[Verse 4] 
(2:42 - 3:30)
E|---------------------|---------------------|---------------------|---------------------|
B|---------------------|---------------------|---------------------|---------------------|
G|-----------1---------|---------------------|-----------3---------|---------------------|
D|-3-------------------|-1---------3---------|---------------------|-5-------------------|
A|---------------------|---------------------|---------------------|-----------1----3----|
E|---------------------|---------------------|-6----4--------------|---------------------|

E|---------------------|---------------------|---------------------|---------------------|
B|---------------------|---------------------|---------------------|---------------------|
G|---------------------|-----------1---------|---------------------|-----------3---------|
D|---------------------|-3-------------------|-1---------3---------|---------------------|
A|-3----1----3---------|---------------------|---------------------|---------------------|
E|---------------------|---------------------|---------------------|-6----4--------------|

E|---------------------|---------------------|---------------------|---------------------|
B|---------------------|---------------------|---------------------|---------------------|
G|---------------------|---------------------|------5---------5----|-----------5---------|
D|-5-------------------|---------------------|-3---------6---------|-5--------------6----|
A|-----------1----3----|-3----1----3---------|---------------------|---------------------|
E|---------------------|---------------------|---------------------|---------------------|

E|---------------------|---------------------|---------------------|---------------------|
B|---------------------|---------------------|---------------------|---------------------|
G|-5---------5---------|-5--------------5----|------5--------------|------5---------5----|
D|------5---------6----|------5--------------|-6---------5----6----|-3---------6---------|
A|---------------------|---------------------|---------------------|---------------------|
E|---------------------|---------------------|---------------------|---------------------|

E|---------------------|---------------------|---------------------|---------------------|
B|---------------------|---------------------|------4----6----6----|-7----6----4----6----|
G|-----------5---------|-5--------------5----|-5-------------------|---------------------|
D|-5--------------6----|------5--------------|---------------------|---------------------|
A|---------------------|---------------------|---------------------|---------------------|
E|---------------------|---------------------|---------------------|---------------------|

E|---------------------|---------------------|---------------------|---------------------|
B|---------------------|---------------------|---------------------|---------------------|
G|------5---------5----|-----------5---------|-5---------5---------|-5--------------5----|
D|-3---------6---------|-5--------------6----|------5---------6----|------5--------------|
A|---------------------|---------------------|---------------------|---------------------|
E|---------------------|---------------------|---------------------|---------------------|

E|---------------------|---------------------|---------------------|---------------------|
B|---------------------|---------------------|---------------------|---------------------|
G|------5--------------|------5---------5----|-----------5---------|-5-------------------|
D|-6---------5----6----|-3---------6---------|-5--------------6----|------5----3----5----|
A|---------------------|---------------------|---------------------|---------------------|
E|---------------------|---------------------|---------------------|---------------------|

E|---------------------|---------------------|---------------------|------3--------------|
B|---------------------|-----------4---------|-4----6--------------|-----------6---------|
G|------3---------3----|-4----5---------5----|----------------5----|-3-------------------|
D|-6---------6---------|---------------------|---------------------|----------------6----|
A|---------------------|---------------------|---------------------|---------------------|
E|---------------------|---------------------|---------------------|---------------------|

E|---------------------|------3--------------|-6----3--------------|---------------------|
B|---------------------|---------------------|---------------------|---------------------|
G|---------------------|-----------5----3----|---------------------|------6----5----3----|
D|-5--------------3----|-6-------------------|---------------------|---------------------|
A|------3--------------|---------------------|---------------------|---------------------|
E|---------------------|---------------------|---------------------|---------------------|

E|---------------------|---------------------|---------------------|---------------------|
B|---------------------|---------------------|---------------------|---------------------|
G|-5-------------------|---------------------|-----------3---------|------5----3---------|
D|----------------3----|-2----5----3---------|-6----5---------6----|---------------------|
A|---------------------|---------------------|---------------------|---------------------|
E|---------------------|---------------------|---------------------|---------------------|

[Verse 5] 
(3:30 - 4:25)
E|-6----3--------------|---------------------|---------------------|---------------------|
B|---------------------|---------------------|---------------------|-----------4---------|
G|-----------5----6----|-3----5--------------|---------------------|-3----5---------3----|
D|---------------------|---------------------|------3----5----6----|---------------------|
A|---------------------|----------------6----|-3-------------------|---------------------|
E|---------------------|---------------------|---------------------|---------------------|

E|---------------------|---------------------|---------------------|---------------------|
B|---------------------|---------------------|---------------------|------4--------------|
G|------3---------5----|---------------------|------3---------5----|----------------5----|
D|-6-------------------|------3---------6----|---------------------|---------------------|
A|---------------------|---------------------|---------------------|---------------------|
E|---------------------|---------------------|---------------------|---------------------|

E|---------------------|---------------------|---------------------|---------------------|
B|-4-------------------|---------------------|---------------------|------4--------------|
G|------3--------------|------3---------5----|---------------------|----------------5----|
D|-----------6----3----|-6-------------------|------3--------------|---------------------|
A|---------------------|---------------------|----------------6----|---------------------|
E|---------------------|---------------------|---------------------|---------------------|

E|---------------------|---------------------|-----------8----11---|-13------------------|
B|-----------9----11---|-11---9--------------|-9----11-------------|-----------13---11---|
G|------10-------------|-----------10---8----|---------------------|---------------------|
D|---------------------|---------------------|---------------------|---------------------|
A|---------------------|---------------------|---------------------|---------------------|
E|---------------------|---------------------|---------------------|---------------------|

E|-15---13-------------|---------------------|-----------18---15---|---------------------|
B|-----------11--------|----------------20---|---------------------|------14---13---11---|
G|----------------13---|---------------------|-17---15-------------|---------------------|
D|---------------------|-10---15---18--------|---------------------|---------------------|
A|---------------------|---------------------|---------------------|---------------------|
E|---------------------|---------------------|---------------------|---------------------|

E|---------------------|---------------------|---------------------|---------------------|
B|-13------------------|---------------------|---------------------|---------------------|
G|---------------------|---------------------|-13---12---15---13---|------17---15--------|
D|----------------15---|-14---17---15--------|---------------------|---------------------|
A|---------------------|---------------------|---------------------|---------------------|
E|---------------------|---------------------|---------------------|---------------------|

E|-18---15-------------|---------------------|---------------------|---------------------|
B|---------------------|---------------------|-16------------------|---------------------|
G|-----------17---18---|-15---17--------17---|------15---13--------|---------------------|
D|---------------------|---------------------|----------------15---|-13-------------13---|
A|---------------------|---------------------|---------------------|------15---13--------|
E|---------------------|---------------------|---------------------|---------------------|


E|---------------------|---------------------|---------------------|---------------------|
B|---------------------|---------------------|---------------------|---------------------|
G|------13--------13---|-15--------17--------|-----------13--------|-15--------17--------|
D|-15--------15--------|---------------------|-15------------------|---------------------|
A|---------------------|---------------------|---------------------|---------------------|
E|---------------------|---------------------|---------------------|---------------------|

E|---------------------|---------------------|---------------------|---------------------|
B|-16-------------16---|---------------------|---------------------|---------------------|
G|-----------17--------|-15---13-------------|-15--------17--------|---------------------|
D|---------------------|-----------15---13---|---------------------|-15--------13--------|
A|---------------------|---------------------|---------------------|---------------------|
E|---------------------|---------------------|---------------------|---------------------|

E|---------------------|---------------------|---------------------|---------------------|
B|-16------------------|---------------------|---------------------|---------------------|
G|-----------17--------|-15-------------13---|-15---15-------------|-13---15---15--------|
D|---------------------|-----------15--------|----------------15---|---------------------|
A|---------------------|---------------------|---------------------|---------------------|
E|---------------------|---------------------|---------------------|---------------------|

[Verse 6] 
(4:25 - 4:49)
E|---------------------|---------------------|---------------------|---------------------|
B|----------------13---|-13---13-------------|---------------------|---------------------|
G|------13---15---17---|-17---17-------------|---------------------|---------------------|
D|-15------------------|---------------------|---------------------|---------------------|
A|---------------------|---------------------|---------------------|---------------------|
E|---------------------|---------------------|-1----4----1----4----|-1----4----1----4----|

E|---------------------|---------------------|---------------------|---------------------|
B|---------------------|---------------------|---------------------|---------------------|
G|---------------------|---------------------|---------------------|---------------------|
D|---------------------|---------------------|---------------------|---------------------|
A|---------------------|---------------------|---------------------|---------------------|
E|-----------1----4----|-1----4----1----4----|-1----4--------------|-1----4----1----4----|

E|---------------------|---------------------|---------------------|---------------------|
B|---------------------|---------------------|---------------------|---------------------|
G|---------------------|---------------------|---------------------|---------------------|
D|---------------------|---------------------|---------------------|---------------------|
A|---------------------|---------------------|---------------------|---------------------|
E|-1----4----1----4----|-----------1----4----|-1----4----1----4----|-1----2--------------|

E|---------------------|---------------------|---------------------|---------------------|
B|---------------------|---------------------|---------------------|---------------------|
G|---------------------|---------------------|---------------------|---------------------|
D|---------------------|---------------------|---------------------|---------------------|
A|---------------------|---------------------|---------------------|---------------------|
E|-1----4----1----4----|-1----4----1----4----|-----------1----4----|-1----4----1----4----|

E|---------------------|---------------------|---------------------|---------------------|
B|---------------------|---------------------|---------------------|---------------------|
G|---------------------|---------------------|---------------------|---------------------|
D|---------------------|---------------------|---------------------|---------------------|
A|---------------------|---------------------|---------------------|---------------------|
E|-1----4--------------|-1----4----1----4----|-1----4----1----4----|-----------1----4----|

[Solo] 
(4:49 - 5:27)
E|---------------------|---------------------|-8-------------------|------8--------------|
B|---------------------|---------------------|-12--------12---11---|-9----12--------12---|
G|---------------------|---------------------|---------------------|---------------------|
D|---------------------|---------------------|---------------------|---------------------|
A|---------------------|---------------------|---------------------|---------------------|
E|-1----4----1----4----|-1----2--------------|---------------------|---------------------|

E|---------------------|---------------------|---------------------|---------------------|
B|-11---9----11---9----|---------------------|---------------------|---------------------|
G|---------------------|-10---8---------8----|-10------------------|---------------------|
D|---------------------|-----------10--------|------8----6---------|---------------------|
A|---------------------|---------------------|---------------------|------6---------6----|
E|---------------------|---------------------|---------------------|-8---------8---------|

E|---------------------|---------------------|---------------------|---------------------|
B|---------------------|---------------------|---------------------|---------------------|
G|---------------------|---------------------|----------------5----|-8----4--------------|
D|-----------6----8----|-9----8----6----8----|------6----8---------|----------------10---|
A|-7----8--------------|---------------------|-8-------------------|---------------------|
E|---------------------|---------------------|---------------------|---------------------|

E|---------------------|---------------------|---------------------|---------------------|
B|---------------------|---------------------|------9----11---12---|------11---9----11---|
G|-8----10---11---10---|-8----10-------------|-10------------------|---------------------|
D|---------------------|---------------------|---------------------|---------------------|
A|---------------------|---------------------|---------------------|---------------------|
E|---------------------|---------------------|---------------------|---------------------|

E|---------------------|---------------------|---------------------|---------------------|
B|---------------------|-11---9----11---13---|-12--------11---9----|-11---9----11---12---|
G|-10-------------10---|---------------------|---------------------|---------------------|
D|---------------------|---------------------|---------------------|---------------------|
A|---------------------|---------------------|---------------------|---------------------|
E|---------------------|---------------------|---------------------|---------------------|

E|------11-------------|---------------------|---------------------|------11-------------|
B|-13--------13---11---|-9----11-------------|-9---------9----11---|-12--------12---11---|
G|---------------------|----------------10---|------10-------------|---------------------|
D|---------------------|---------------------|---------------------|---------------------|
A|---------------------|---------------------|---------------------|---------------------|
E|---------------------|---------------------|---------------------|---------------------|

E|---------------------|---------------------|---------------------|---------------------|
B|-9-------------------|-9---------9---------|-9-------------------|---------------------|
G|------10---8----10---|------10--------10---|------10---11--------|---------------------|
D|---------------------|---------------------|---------------------|-10---11---10--------|
A|---------------------|---------------------|---------------------|---------------------|
E|---------------------|---------------------|---------------------|---------------------|

E|---------------------|---------------------|---------------------|---------------------|
B|---------------------|---------------------|---------------------|---------------------|
G|---------------------|---------------------|---------------------|---------------------|
D|----------------8----|-10---11---10---8----|---------------------|---------------------|
A|-8----9----11--------|---------------------|-11---9----8---------|-8----8----6----8----|
E|---------------------|---------------------|---------------------|---------------------|
Suggest correction
Creating personal tab
Creating personal tab
You can edit any tab online and save it as your Personal.

You can edit, replace or remove any tab part or add personal notes – all changes will be seen only by you.

Personal tabs can be accessed anytime from any device, even offline.
Learn more »
Give kudos to tab author, rate the tab!
1 2 3 4 5
comments
print report bad tab
guest
You may want to rate the tab now too:
select rating
Wanna post a correction for this tab? Suggest correction