Oops, an error
Loading. Please wait.

Es Tu Voz Tab

by Taxi
39 views 1 this week
no commentswrite comment
1 2 3 4 5
3 more votes to show rating
add to favorites
launch autoscroll
font size
0
reset
how to read this tab
guitar tuner
Autoscroll
slow
fast
+/-
esc
set tempo
stop
Hola La Cuerda les mando esta canción que habían pedido un tiempo.
Especifico el acorde E/G# en la parte final.


Intro:
F#m   D   E   A  E/G#  x3  F#m   D   E


F#m     D          E         A      E/G#  C#m   D        E      A   E/G#
  En el invierno escribo canciones que me hacen, que me hacen vivir
F#m        D              E        A     E/G# C#m  D            E      A
  son las historias que me hacen raíz en las ideas, que hay dentro de mí
     F#m         C#m         D                 Bm         C#m
Y yo busco algo nuevo que me haga sentirme muy bien y da igual lo que digan
    D                         E            D
da igual si no entienden por qué no nos podrán romper


      F#m  D             A         E          F#m  D            A    E
Es tu voz    la que me empuja a seguir, es tu voz    la que me ama a mí
     F#m  D        A      E         Bm          C#m D
y yo sé      que aquí estaré si me quieres en tu mundo

F#m   D   E   A  E/G#   C#m   D   E


F#m       D        E       A   E/G# C#m   D             E        A   E/G#
  Amor y miedos y como se vive esta vida,   es lo que me hace sentir
F#m           D     E       A    E/G#  C#m  D      E        A
  si con mis temas lleno tu alma y te hago     ser parte de mí
     F#m         C#m          D             Bm       C#m
Y comparto algo nuevo que nos toca a ti y a mí y da igual lo que digan
    D                      E           D
da igual lo que cuentes si es pa' conectar otra vez


      F#m  D             A         E          F#m  D            A    E
Es tu voz    la que me empuja a seguir, es tu voz    la que me ama a mí
     F#m  D        A      E         Bm          C#m D
y yo sé      que aquí estaré si me quieres en tu mundo

Solo:
  F#m           D        A         E           F#m     D          A     E
e ------------------------------------------------------------------------
B -7----7--7--7--7-------2---4-4-4-4------7----7--7--7--7---------5---5-5-
G -9b11-11-11-11-11-9----4b6-6-6-6-6-4-2--9b11-11-11-11-11-9--6-7-7b9-9-9-
D --------------------7---------------------------------------------------
A ------------------------------------------------------------------------
E ------------------------------------------------------------------------

  F#m     D               A       E      Bm                    C#m     D
e ------------------------------------------------------------------------
B -2----4--2----------------------------7----7--7---7----7---12b14r12--10-
G -4b6--6----4-2---2-4-------6----9-----9b11-11-11--9b11-11---------------
D ---------------4-------6s7---7--9---------------------------------------
A -----------------------*******------------------------------------------
E ------------------------------------------------------------------------
  (dejar sonar las dos notas sobre los asteriscos)

     F#m         C#m          D             Bm       C#m
Y comparto algo nuevo que nos toca a ti y a mí y da igual lo que digan
    D                      E           D
da igual lo que cuentes si es pa' conectar otra vez


      F#m  D             A         E          F#m  D            A    E
Es tu voz    la que me empuja a seguir, es tu voz    la que me ama a mí
     F#m  D        A      E         Bm          C#m D
y yo sé      que aquí estaré si me quieres en tu mundo

      F#m  D             A         E          F#m  D            A    E
Es tu voz    la que me empuja a seguir, es tu voz    la que me ama a mí
     F#m  D        A      E         Bm          C#m D
y yo sé      que aquí estaré si me quieres en tu mundo
       Bm          C#m D     F#m
si me quieres en tu mundo


Acorde E/G#:

e -------
B ---5---
G ---4---
D ---2---
A ---X---
E ---4---

Cualquier comentario escribanme a hectorprs@
Suggest correction
Give kudos to tab author, rate the tab!
1 2 3 4 5
comments
print report bad tab
guest
You may want to rate the tab now too:
select rating
Wanna post a correction for this tab? Suggest correction