Oops, an error
Loading. Please wait.

Chocolate Rain tab

version 2
version 2

Whole song

Interactive

15,887 views 3 this week
7 commentsread comments
1 2 3 4 5
x 6
add to favorites
×
Save as Personal and add changes to this tab that will be seen only by you. Learn more ›
×
You can save this tab as Personal to edit and correct it or add notes. All changes will be seen only by you. Learn more »
launch autoscroll
font size
0
reset
how to read this tab
guitar tuner
edit
Autoscroll
slow
fast
+/-
esc
set tempo
stop
Author
Difficulty
-------------------------------------------------------------------------------
                             Chocolate Rain - Tay Zonday
-------------------------------------------------------------------------------
Tabbed by: Ben (maip23)
Email: maip233@yahoo.com

Tuning: Standard

Here's the guitar interpretation of the song.  It took me a while to figure out, but I
this is the most accurate version you'll find on the web.  Hope you like it and you rock
out on stage or in front of your friends.  You can even change the octave of the melody 
suit your needs and listen to the song to get the rhythm.


MELODY:

e|---------------------------------------------------------------------------|
B|---------------------------------------------------------------------------|
G|---------------------------------------------------------------------------|
D|--------5---------------------------------------X2-------------------------|
A|--6--6-----6--8-----5--6---------5-----------------------------------------|
E|-----------------6----------8---------6--8---------------------------------|

e|---------------------------------------------------------------------------|
B|---------------------------------------------------------------------------|
G|---------------------------------------------------------------------------|
D|--------5-----8------------------------------------------------------------|
A|--6--6-----6--------5--6---------5-----------------------------------------|
E|-----------------6----------8---------6--8---------------------------------|

e|---------------------------------------------------------------------------|
B|---------------------------------------------------------------------------|
G|--5------------------------------------------------------------------------|
D|-------5--5--8-------5-----------------------------------------------------|
A|------------------8-------6--8----5--6-------------------------------------|
E|---------------------------------------------------------------------------|


BASS LINE

e|---------------------------------------------------------------------------|
B|---------------------------------------------------------------------------|
G|---------------------------------------8--7-----5----------5---------------|
D|------8----5------------------------6--------8-----5--8--------------------|
A|------------------5--6-----------------------------------------------------|
E|--8------------------------------------------------------------------------|

e|---------------------------------------------------------------------------|
B|---------------------------------------------------------------------------|
G|------------5----7----8---------------------------------5------------------|
D|--6---------------------------------6----5----6----8-------------X?--------|
A|-------8-------------------------------------------------------------------|
E|---------------------------------------------------------------------------|


CHORDS:

e|---------------------------------------------------------------------------|
B|---------------------------------------------------------------------------|
G|--5-----3-----5-----3-------------------------------------------5----------|
D|--5--5--3--5--5-----3----5--------------6--5--3--8--6------8----5-----X?---|
A|--3--5--1--5--3-----1----5--------------6--5--3--8--6------8----3----------|
E|-----3-----3-------------3--------------4--3--1--6--4------6---------------|

| /  slide up
| \  slide down
| h  hammer-on
| p  pull-off
| ~  vibrato
| +  harmonic
| x  Mute note
===============================================================================

            
            
Suggest correction
Creating personal tab
Creating personal tab
You can edit any tab online and save it as your Personal.

You can edit, replace or remove any tab part or add personal notes – all changes will be seen only by you.

Personal tabs can be accessed anytime from any device, even offline.
Learn more »
comments
print report bad tab
7 comments total. Showing first comments.
-2 reply
Apajarillaga 10 Aug 23, 2007 01:13 PM

i know i've never even heard it before. how is it number 7?

-1 reply
run5home 576 Aug 23, 2007 08:44 PM

its cause he got featured on youtube

+1 reply
GiantRaven 289 Oct 18, 2007 03:45 PM

haha

brilliant

guest
You may want to rate the tab now too:
select rating
Wanna post a correction for this tab? Suggest correction