Oops, an error
Loading. Please wait.

22 Tab

25,674 views 48 this week
3 commentsread comments
1 2 3 4 5
accurate
x 5
add to favorites
launch autoscroll
font size
0
reset
how to read this tab
guitar tuner
Autoscroll
slow
fast
+/-
esc
set tempo
stop
Help us to improve Ultimate-Guitar.com Take our survey!
×
Author
Difficulty
novice
song: 22
by: taylor swift
tabbed by: craftoon
email: craftoon@easy.com
contact: +639098998909
facebook: craftoon@easy.com
twitter: @craftoon13

message: another version of mine again! looks like im addicted to make some guitar tab. 
:) anyway just enjoy it guys and thanks for viewing my tab. i hope it wont make your day 
miserrable hehehe just kidding



legends: D-down strum
         U-up strum
         *-silent strum
         '-fasten strum
         %-breaking strum

Intro
(half strums every chords)
G Dsus4 C9 Dsus4

[stanza 1]

e|----------------------------------------|
B|-3-3--xxxx-----2-2--2-2-xxxx------2-2---|
G|-4-4--xxxx-----1-1--x-x-xxxx------1-1---|
D|-4-4--xxxx-----0-0--2-2-xxxx------0-0---|
A|-5-5--xxxx-----x-x--3-3-xxxx------x-x---|
E|----------------------------------------|

  D-D--D*U*D*U--'D'D--D-D--D*U*D*U--'D'D

G               Dsus4         C9             Dsus4
It feels like a perfect night, to dress up like hipsters

e|----------------------------------------|
B|-3-3--xxxx-----2-2--2-2-xxxx------2-2---|
G|-4-4--xxxx-----1-1--x-x-xxxx------1-1---|
D|-4-4--xxxx-----0-0--2-2-xxxx------0-0---|
A|-5-5--xxxx-----x-x--3-3-xxxx------x-x---|
E|----------------------------------------|


G                   Dsus4 C9   Dsus4
And make fun of our exes.  uh uh, uh uh

e|----------------------------------------|
B|-3-3--xxxx-----2-2--2-2-xxxx------2-2---|
G|-4-4--xxxx-----1-1--x-x-xxxx------1-1---|
D|-4-4--xxxx-----0-0--2-2-xxxx------0-0---|
A|-5-5--xxxx-----x-x--3-3-xxxx------x-x---|
E|----------------------------------------|


G               Dsus4         C9             Dsus4
It feels like a perfect night, for breakfast at midnight.

e|----------------------------------------|
B|-3-3--xxxx-----2-2--2-2-xxxx------2-2---|
G|-4-4--xxxx-----1-1--x-x-xxxx------1-1---|
D|-4-4--xxxx-----0-0--2-2-xxxx------0-0---|
A|-5-5--xxxx-----x-x--3-3-xxxx------x-x---|
E|----------------------------------------|


G                    Dsus4      C9   Dsus4
To fall in love with strangers,  uh uh, uh uh

e|----------------------------------------|
B|-3-3--xxxx-----2-2--2-2-xxxx------2-2---|
G|-4-4--xxxx-----1-1--x-x-xxxx------1-1---|
D|-4-4--xxxx-----0-0--2-2-xxxx------0-0---|
A|-5-5--xxxx-----x-x--3-3-xxxx------x-x---|
E|----------------------------------------|

[refrain] (same pattern with stanza)

G           C9           Dsus4                   G
yeahhh...We're happy, free, confused and lonely at the same time
     C9         Dsus4       G
It's miserable and magical, oh yeahhh..
  C9                     Dsus4            G
Tonight's the night when we forget about the deadlines
     C9  C9(break)
It's time, uh uh


[chorus]
G                      C9                   Em
 I don't know about you, but I'm feeling twenty-two

e|-------------------------------------------|
B|-3%--3%-3%------2%--2%-2%-------2%--2%-2%--|
G|-4%--4%-4%------x%--x%-x%-------x%--x%-x%--|
D|-4%--4%-4%------2%--2%-2%-------2%--2%-2%--|
A|-5%--5%-5%------3%--3%-3%-------2%--2%-2%--|
E|-------------------------------------------|

                    C9   Dsus4                      G
Everything will be alright if,  you keep me next to you

e|----------------------------------------|
B|-------2%--2%-2%-----------2%--2%-2%----|
G|-------x%--x%-x%-----------1%--1%-1%----|
D|-------2%--2%-2%-----------0%--0%-0%----|
A|-------3%--3%-3%-----------x%--x%-x%----|
E|----------------------------------------|

                       C9               Em
You don't know about me, but I bet you want to

e|-------------------------------------------|
B|-3%--3%-3%------2%--2%-2%-------2%--2%-2%--|
G|-4%--4%-4%------x%--x%-x%-------x%--x%-x%--|
D|-4%--4%-4%------2%--2%-2%-------2%--2%-2%--|
A|-5%--5%-5%------3%--3%-3%-------2%--2%-2%--|
E|-------------------------------------------|

                    C9   Dsus4                              G
Everything will be alright if,  we just keep dancing like we're

e|----------------------------------------|
B|-------2%--2%-2%-----------2%--2%-2%----|
G|-------x%--x%-x%-----------1%--1%-1%----|
D|-------2%--2%-2%-----------0%--0%-0%----|
A|-------3%--3%-3%-----------x%--x%-x%----|
E|----------------------------------------|

         Dsus4 C9        Dsus4
Twenty-twoooo, twenty-twoooo

(strum in this part)


[stanza 2](same with first stanza)

G             Dsus4
It seems like one of those nights
C9              Dsus4
 This place is too crowded
G        Dsus4      C9   Dsus4
Too many cool kids,  uh uh, uh uh
G             Dsus4
It seems like one of those nights
C9         Dsus4
 We ditch the whole scene
G          Dsus4    C9      Dsus4
And end up dreaming instead of sleeping


[refrain 2] (same with refrain 1)


   G           C9           Dsus4                   G
yeah....We're happy, free, confused and lonely in the best way
     C9         Dsus4       G
It's miserable and magical, oh yeah
  C9                     Dsus4            G
Tonights the night when we forget about the heartbreaks
     C9
It's time, uh uh


(repeat chorus)

[bridge] (strum in this part)
G             Dsus4
It feels like one of those nights
C9
 We ditch the whole scene
G             C9
It feels like one of those nights
D
 We won't be sleeping
G             Dsus4
It feels like one of those nights
C9
 You look like bad news
                Dsus4             G
I gotta have you, I gotta have you

(intro 2x)

        G*G*G*G*G
Oh, oh, yeah yeah


(repeat chorus)


G             Dsus4
It feels like one of those nights
C9
 We ditch the whole scene
G             C9
It feels like one of those nights
Dsus4
 We won't be sleeping
G             Dsus4
It feels like one of those nights
C9
You look like bad news
                Dsus4          break (the end)
I gotta have you,  I gotta have you...

[craftoon]
Suggest correction
comments
print report bad tab
3 comments total.
0 reply
tobewithyou 126 wrote on July 7 2013, 01:30 am

instead of Dsus4, u can play it D

0 reply
_Booyah_ 62 wrote on September 15 2014, 11:08 pm

Clearly wrong. Doesnt sound right at all, could be a different tuning or something i dont know but it need to be updated

0 reply
tobewithyou 126 wrote on September 19 2014, 01:54 am

i used broken chords and i dont include the E strings, im not good but i think i have the speed for strumming and timing of chords

guest
You may want to rate the tab now too:
select rating
Wanna post a correction for this tab? Suggest correction