Oops, an error
Loading. Please wait.

Back To December Tab

version 1
version 1

Whole song

  • First tab ive made, i know its shitty, just made i... Show more

Interactive

56,137 views 18 this week
3 commentsread comments
1 2 3 4 5
accurate
x 5
add to favorites
launch autoscroll
font size
0
reset
how to read this tab
guitar tuner
Autoscroll
slow
fast
+/-
esc
set tempo
stop
Help us to improve Ultimate-Guitar.com Take our survey!
×
Author
Difficulty
novice
It's not that perfect, but I think it's good. :D


e|---3-2-------2-5------2-5-3-----------------|
B|--------2h4------2h4------------------------|
G|-----------------------------2h4-2h4-2h4-2--|
D|--------------------------------------------|
A|--------------------------------------------|
E|--------------------------------------------|
Suggest correction new What's this?
You can suggest a correction to this tab. Community and Mods will review your correction and vote to approve or reject it.
comments
print report bad tab
3 comments total.
0 reply
annaxx924 23 wrote on February 22 2011, 12:16 am

You have the gist of it but the high E string sounds off; I'll see what I can do

+1 reply
mevoxede 14 wrote on February 23 2011, 04:53 am

e|---3---2----------------------------|
B|-----------3------------------------|
G|---------------2-----------(2h4)x4--|
D|------------------------------------|
A|------------------------------------|
E|------------------------------------|
-|-&-1-&-2-&-3-&-4-&-1-&-2-&-3-&-4-&-1|

looks more promising to me.

0 reply
mevoxede 14 wrote on February 25 2011, 06:55 am

if you watch how the way the guitar soloist plays in this youtube video. http://www.youtube.com/watch?v=vio0RidOMUM

e|------------------------------------|
B|---8---7----------------------------|
G|-----------7------------------------|
D|---------------7-----------(7h9)x4--|
A|------------------------------------|
E|------------------------------------|
-|-&-1-&-2-&-3-&-4-&-1-&-2-&-3-&-4-&-1|

its basically the same as the ones i've commented earlier.
both are correct.

guest
You may want to rate the tab now too:
select rating
Please do not post tabs as comments. Select "correction" instead!