Oops, an error
Loading. Please wait.

Back To December Tab

version 4
version 4

Whole song

Interactive

Video

7,328 views 3 this week
1 commentread comment
1 2 3 4 5
not so good
x 1
add to favorites
launch autoscroll
font size
0
reset
how to read this tab
guitar tuner
Tab Pro tools
  • play this tab
  • loop segment
  • change instrument
  • show fretboard
  • metronome
×
Best way to learn
"Back To December"
Autoscroll
slow
fast
+/-
esc
set tempo
stop
Contributor
Difficulty
____________________________=Back to December=_______________________________
                                   by
                              TAYLOR SWIFT ♥
_____________________________________________________________________________
                                 
                        Tabbed by: XxTOKIO-HOTELxX.
_____________________________________________________________________________


Im pretty sure this is 100% right :)


e|---3-2-------2-2------2-2h3-----------------|
B|--------2h4------2h4------------------------|
G|-----------------------------2h4-2h4-2h4-2--|
D|--------------------------------------------|
A|--------------------------------------------|
E|--------------------------------------------| 2x



                     OR
           (you could do it like this)
                 (your choice)



e|---3-2-----------------------------------------------|
B|--------2h4----7--7----2h4---7-7--8------------------|
G|--------------------------------------2h4-2h4-2h4-2--|
D|-----------------------------------------------------|
A|-----------------------------------------------------|
E|-----------------------------------------------------|2x



HAPPY TABBING: :)
comments
We did not receive enough feedback on this tab! Please rate:
print report bad tab
1 2 3 4 5
1 comment total.
0 reply
XxTOKIO-HOTELxX wrote on May 24 2011, 05:03 am

I'm sorry i post a wrong tab.. what i meant was



e|---3-2-------2-2------2-2h3-----------------|
B|--------3h5------3h5------------------------|
G|-----------------------------2h4-2h4-2h4-2--|
D|--------------------------------------------|
A|--------------------------------------------|
E|--------------------------------------------| 2x

OR
(you could do it like this)
(your choice)

e|---3-2-----------------------------------------------|
B|--------3h5----7--7----3h5---7-7--8------------------|
G|--------------------------------------2h4-2h4-2h4-2--|
D|-----------------------------------------------------|
A|-----------------------------------------------------|
E|-----------------------------------------------------|2x



There! ALL BETTER :)) hop that helps ^_^

I want to post or [tab]
guest
You may want to rate the tab now too:
select rating
Please do not post tabs as comments. Select "correction" instead!