Oops, an error
Loading. Please wait.

Back To December Tab

version 6
version 6

Whole song

  • First tab ive made, i know its shitty, just made i... Show more

Interactive

39,249 views 45 this week
1 commentread comment
1 2 3 4 5
excellent!
x 9
add to favorites
launch autoscroll
font size
0
reset
how to read this tab
guitar tuner
Autoscroll
slow
fast
+/-
esc
set tempo
stop
Help us to improve Ultimate-Guitar.com Take our survey!
×
Contributor
Difficulty
intermediate
Here's what the ACOUSTIC GUITAR plays in the intro:

e|-----------------------------------------------------------------|
B|-----7---7---7-10-----7---7---7-10-----7---10--------------------|
G|-7-9--------------7-9--------------7-9----------7---------7h9----|
D|------------------------------------------------------7h9--------|    x2
A|-----------------------------------------------------------------|
E|-----------------------------------------------------------------|



Here's what the Electric Guitar plays in the intro:

e|------------------------------------|
B|---8---7----------------------------|
G|-----------7------------------------|
D|---------------7-----------(7h9)x4--|    x2
A|------------------------------------|
E|------------------------------------|
comments
print report bad tab
1 comment total.
0 reply
jorisy00 83 wrote on August 14 2011, 03:40 pm

I think this way sounds better with the record for the electric guitar intro:

e|------------------------------------|
B|--/8--7~------/7-7~------/7-7-8~----|
G|---------7/9--------7/9-------------|
D|------------------------------------| x2
A|------------------------------------|
E|------------------------------------|

*The 7/9 could also be a 7h9. Doesn't matter much.

I want to post or [tab]
guest
You may want to rate the tab now too:
select rating
Please do not post tabs as comments. Select "correction" instead!