Oops, an error
Loading. Please wait.
We have an official Back To December tab made by UG professional guitarists. Check out the tab »
×

Back To December tab

version 3
version 3

Whole song

  • First tab ive made, i know its shitty, just made i... Show more

Interactive

Video

907 views 3 this week
no commentswrite comment
1 2 3 4 5
2 more votes to show rating
add to favorites
×
Save as Personal and add changes to this tab that will be seen only by you. Learn more ›
×
You can save this tab as Personal to edit and correct it or add notes. All changes will be seen only by you. Learn more »
launch autoscroll
font size
0
reset
how to read this tab
guitar tuner
backing track
0:00
0:00
edit
Autoscroll
slow
fast
+/-
esc
set tempo
stop
-------------------------------------------------------------------------------
                             BACK TO DECEMBER - TAYLOR SWIFT
-------------------------------------------------------------------------------
Based off Youtube Cover : https://www.youtube.com/watch?v=-wNgC4vKi_s
Channel: https://www.youtube.com/user/SwiftSophia13

MAKE SURE TO RATE THE TAB AND FOLLOW THE YOUTUBER CHANNEL IF YOU FIND IT HELPFUL!! ENJOY <3

Tuning:Standard Tuning 
No capo

Tuning:Standard

e|----0----------------------|-0----------------------|
B|-------3-----2--2--0--2--3-|----3--2--2--2--0--2--3-|
G|-2--------2----------------|------------------------|
D|---------------------------|------------------------|
A|---------------------------|------------------------|
E|---------------------------|------------------------|
I'm so glad you made time to see me| How's life? Tell me how's your family

e|-0-----0-----0-----0--2--0--2--0----|
B|----3-----3-----3-----------------2-|
G|------------------------------------|
D|------------------------------------|
A|------------------------------------|
E|------------------------------------|
I haven't seen them in a while

e|----0----------------------|-0-------------------|
B|-------3--2--2--2--0--2--3-|----3--2--2--0--2--3-|
G|-2-------------------------|---------------------|
D|---------------------------|---------------------|
A|---------------------------|---------------------|
E|---------------------------|---------------------|
You've been good, busier than ever| We small talk, work and the weather

e|-0-----0-----0-----0--2--0--2--0----|
B|----3-----3-----3-----------------2-|
G|------------------------------------|
D|------------------------------------|
A|------------------------------------|
E|------------------------------------|
Your guard is up and I know why

e|----------2--0-----0----|-----------------------------|
B|----------------------3-|-------3--3--3--3------------|
G|-2--2--2--------2-------|-2--2----------------2--2--0-|
D|------------------------|-----------------------------|
A|------------------------|-----------------------------|
E|------------------------|-----------------------------|
Because the last time you saw me| Is still burned in the back of your mind 

e|----------2--0----------------------|
B|----------------3--2--2--2--2--0--3-|
G|-2--2--2----------------------------|
D|------------------------------------|
A|------------------------------------|
E|------------------------------------|
You gave me roses and I left them there to die

e|----2--0--2-|-2--0--2-|-2--2-|-2--0--2-|-2--0--2-|-2--0--2-|
B|-3----------|---------|------|---------|---------|---------|
G|------------|---------|------|---------|---------|---------|
D|------------|---------|------|---------|---------|---------|
A|------------|---------|------|---------|---------|---------|
E|------------|---------|------|---------|---------|---------|
So this is me| Swallowing| My pride| Standing in| Front of you 

e|-2--0--2-|-5------|
B|---------|----2h3-|
G|---------|--------|
D|---------|--------|
A|---------|--------|
E|---------|--------|
Saying I'm| Sorry for| That night

e|----2--------0--2--2-----2-------|
B|-3-----3--3-----------5-----2--3-|
G|---------------------------------|
D|---------------------------------|
A|---------------------------------|
E|---------------------------------|
And I go back to December all the time

e|-2--2-|-2--0--2-|-2--0--2-|-2--0--2-|
B|------|---------|---------|---------|
G|------|-------------------|---------|
D|------|---------|---------|---------|
A|------|---------|---------|---------|
E|------|---------|---------|---------|
Turns out| Freedom ain't| Nothing but| Missing you

e|-2--0--2-|-2--0--2-|-2--2--5-|-----------|
B|---------|---------|---------|-2--2h3--3-|
G|---------|---------|---------|-----------|
D|---------|---------|---------|-----------|
A|---------|---------|---------|-----------|
E|---------|---------|---------|-----------|
Wishing I'd| Realized| What I had| When you were mine

e|-2--------0--2--2--0-|-2--0--2--0--2----------|
B|----3--3-------------|----------------3--2--0-|
G|---------------------|------------------------|
D|---------------------|------------------------|
A|---------------------|------------------------|
E|---------------------|------------------------|
I'd go back to December| Turn around and make it all right

e|-2--------0--2--2--0--2-------|
B|----3--3-----------------2--3-|
G|------------------------------|
D|------------------------------|
A|------------------------------|
E|------------------------------|
I'd go back to December all the time

e|-0----------------|------|-------0-------|---------|------|
B|----3-----2--2--2-|-2--3-|-2--2-----3--3-|-2--2--2-|-2--3-|
G|-------2----------|------|---------------|---------|------|
D|------------------|------|---------------|---------|------|
A|------------------|------|---------------|---------|------|
E|------------------|------|---------------|---------|------|
These days I haven't been| Sleeping| Staying up playing| Back myself| Leaving 

e|-------3--2----|----------0--2--0--2--0----|
B|-2--3--------3-|-2--3--3-----------------2-|
G|---------------|---------------------------|
D|---------------|---------------------------|
A|---------------|---------------------------|
E|---------------|---------------------------|
When your birthday passed| And I didn't call

e|-------2--2--2--3--2-|-------------0----|
B|-2--3----------------|-3--3--2--3-----3-|
G|---------------------|------------------|
D|---------------------|------------------|
A|---------------------|------------------|
E|---------------------|------------------|
And I think about summer| All the beautiful times

e|----2--2--3--2--------------0--0----|-3--3--2--0--------0--2--0--2--2-|
B|-3--------------3--2--2--3--------3-|-------------3--3----------------|
G|------------------------------------|---------------------------------|
D|------------------------------------|---------------------------------|
A|------------------------------------|---------------------------------|
E|------------------------------------|---------------------------------|
I watched laughing from the passenger side| Realized that I loved you in the fall

e|----------2--0-----0----|---------------------|
B|----------------------3-|----3--3--3----------|
G|-2--2--2--------2-------|-2-----------2--2--0-|
D|------------------------|---------------------|
A|------------------------|---------------------|
E|------------------------|---------------------|
And then the cold came the dark days| When fear crept into my mind

e|----------2--3--2-|-2--2--2-----------------|
B|------------------|-----------2--2--2--0--3-|
G|-2--2--2----------|-------------------------|
D|------------------|-------------------------|
A|------------------|-------------------------|
E|------------------|-------------------------|
You gave me all your love| And all I gave you was goodbye

e|----2--0--2-|-2--0--2-|-2--2-|-2--0--2-|-2--0--2-|
B|-3----------|---------|------|---------|---------|
G|------------|---------|------|---------|---------|
D|------------|---------|------|---------|---------|
A|------------|---------|------|---------|---------|
E|------------|---------|------|---------|---------|
So this is me| Swallowing| My pride| Standing in| Front of you

e|-2--0--2-|-2--0--2-|-5------|
B|---------|---------|----2h3-|
G|---------|---------|--------|
D|---------|---------|--------|
A|---------|---------|--------|
E|---------|---------|--------|
Saying I'm| Sorry for| That night

e|----2--------0--2--2-----2-------|
B|-3-----3--3-----------5-----2--3-|
G|---------------------------------|
D|---------------------------------|
A|---------------------------------|
E|---------------------------------|
And I go back to December all the time

e|-2--2-|-2--0--2-|-2--0--2-|-2--0--2-|
B|------|---------|---------|---------|
G|------|-------------------|---------|
D|------|---------|---------|---------|
A|------|---------|---------|---------|
E|------|---------|---------|---------|
Turns out| Freedom ain't| Nothing but| Missing you

e|-2--0--2-|-2--0--2-|-2--2--5-|-----------|
B|---------|---------|---------|-2--2h3--3-|
G|---------|---------|---------|-----------|
D|---------|---------|---------|-----------|
A|---------|---------|---------|-----------|
E|---------|---------|---------|-----------|
Wishing I'd| Realized| What I had| When you were mine

e|-2--------0--2--2--0-|-2--0--2--0--2----------|
B|----3--3-------------|----------------3--2--0-|
G|---------------------|------------------------|
D|---------------------|------------------------|
A|---------------------|------------------------|
E|---------------------|------------------------|
I'd go back to December| Turn around and change my own mind

e|-2--------0--2--2--0--2-------|
B|----3--3-----------------2--3-|
G|------------------------------|
D|------------------------------|
A|------------------------------|
E|------------------------------|
I'd go back to December all the time

e|-------5--0----|-5--0----|-5--0-------|-5--0----|
B|-3--3--------3-|-------3-|-------3--3-|-------3-|
G|---------------|---------|------------|---------|
D|---------------|---------|------------|---------|
A|---------------|---------|------------|---------|
E|---------------|---------|------------|---------|
I miss your tan skin| Your sweet smile| So good to me| So right

e|-------0--3--2--------3--------------2-|----2--0--------0----------|
B|-3--3-----------3--------3--2--2--3----|-3--------3--------3--2----|
G|-------------------2-------------------|-------------2-----------4-|
D|---------------------------------------|---------------------------|
A|---------------------------------------|---------------------------|
E|---------------------------------------|---------------------------|
And how you held me in your arms that September night| The first time you ever saw me cry

e|-5----------------------|-5-------------------|
B|----3--3--2--2-----2--3-|----3--3--2-----2--3-|
G|----------------4-------|-------------4-------|
D|------------------------|---------------------|
A|------------------------|---------------------|
E|------------------------|---------------------|
Maybe this is wishful thinking| Probably mindless dreaming

e|----0--3--2----|------------------|
B|-3-----------3-|-3--3--3--3-------|
G|---------------|-------------2--0-|
D|---------------|------------------|
A|---------------|------------------|
E|---------------|------------------|
If we loved again| I'd swear I'd love you right

e|-------2--0--2-------------------|
B|-2--3-----------2--2--3-----0--0-|
G|-------------------------2-------|
D|---------------------------------|
A|---------------------------------|
E|---------------------------------|
I'd go back in time and change it but I can't

e|------------------------|------------|
B|----0--2--3--2--3--2----|------------|
G|-2--------------------2-|-2--2--4--4-|
D|------------------------|------------|
A|------------------------|------------|
E|------------------------|------------|
So if the chain is on your door| I understand

e|----2--0--2-|-2--0--2-|-2--2-|-2--0--2-|-2--0--2-|
B|-3----------|---------|------|---------|---------|
G|------------|---------|------|---------|---------|
D|------------|---------|------|---------|---------|
A|------------|---------|------|---------|---------|
E|------------|---------|------|---------|---------|
But this is me| Swallowing| My pride| Standing in| Front of you

e|-2--0--2-|-2--0--2-|-5------|
B|---------|---------|----2h3-|
G|---------|---------|--------|
D|---------|---------|--------|
A|---------|---------|--------|
E|---------|---------|--------|
Saying I'm| Sorry for| That night

e|----2--------0--2--2--0|
B|-3-----3--3------------|
G|-----------------------|
D|-----------------------|
A|-----------------------|
E|-----------------------|
And I go back to December

e|-0--2--2-|-2--0--2-|-2--0--2-|-2--0--2-|
B|---------|---------|---------|---------|
G|---------|-------------------|---------|
D|---------|---------|---------|---------|
A|---------|---------|---------|---------|
E|---------|---------|---------|---------|
It turns out| Freedom ain't| Nothing but| Missing you

e|-2--0--2-|-2--0--2-|-2--2--5-|--------|-2--0----|
B|---------|---------|---------|-2--2h3-|-------3-|
G|---------|---------|---------|--------|---------|
D|---------|---------|---------|--------|---------|
A|---------|---------|---------|--------|---------|
E|---------|---------|---------|--------|---------|
Wishing I'd| Realized| What I had| When you were| Mine

e|-2--------0--2--2--0-|-2--0--2--0--2----------|
B|----3--3-------------|----------------3--2--0-|
G|---------------------|------------------------|
D|---------------------|------------------------|
A|---------------------|------------------------|
E|---------------------|------------------------|
I'd go back to December| Turn around and make it all right

e|-2--------0--2--2--0-|-2--0--2--0--2----------|
B|----3--3-------------|----------------3--2--0-|
G|---------------------|------------------------|
D|---------------------|------------------------|
A|---------------------|------------------------|
E|---------------------|------------------------|
I'd go back to December| Turn around and change my own mind

e|-2--------0--2--2--0---2-------|
B|----3--3------------------3--3-|
G|-------------------------------|
D|-------------------------------|
A|-------------------------------|
E|-------------------------------|
I go back to December all the time


************************************

| /   slide up
| \   slide down
| h   hammer-on
| p   pull-off
| ~   vibrato
| +   harmonic
| x   Mute note
| b   Bend
| pb  Pre-bend
| br  Bend release
| pbr Pre-bend release
| brb Bend release bend

************************************

            
            
Suggest correction
Creating personal tab
Creating personal tab
You can edit any tab online and save it as your Personal.

You can edit, replace or remove any tab part or add personal notes – all changes will be seen only by you.

Personal tabs can be accessed anytime from any device, even offline.
Learn more »
Give kudos to tab author, rate the tab!
1 2 3 4 5
comments
print report bad tab
guest
You may want to rate the tab now too:
select rating
Wanna post a correction for this tab? Suggest correction