Oops, an error
Loading. Please wait.

Bad Blood bass

version 1
version 1

Whole song

2,981 views 6 this week
no commentswrite comment
1 2 3 4 5
1 last vote to show rating
add to favorites
×
Save as Personal and add changes to this tab that will be seen only by you. Learn more ›
×
You can save this tab as Personal to edit and correct it or add notes. All changes will be seen only by you. Learn more »
launch autoscroll
font size
0
reset
guitar tuner
edit
Autoscroll
slow
fast
+/-
esc
set tempo
stop
Author
Difficulty
-------------------------------------------------------------------------------
                             Bad Blood - Taylor Swift
-------------------------------------------------------------------------------
Tabbed by: rlhoyt

There is only bass coming in for the pre-chorus and the chorus, so there is not much to memorize.
Listen to the song for the proper timing

Tuning: Standard

Pre-chorus:

G|---------------------------------------------------------------------------|
D|---------------------------------------------------------------------------|
A|---3---------5---------3---------5*----------------------------------------|
E|--------3---------0---------3----------------------------------------------|

Chorus:

G|---------------------------------------------------------------------------|
D|---------------------------------------------------------------------------|
A|-----3----------------5----------------------------------------------------|   x2
E|----------33----33---------00----00----------------------------------------|

G|---------------------------------------------------------------------------|
D|---------------------------------------------------------------------------|
A|----3*---------5*---------3*---------5*------------------------------------|
E|---------3*---------0*---------3*------------------------------------------|



| *  let ring
| /  slide up
| \  slide down
| h  hammer-on
| p  pull-off
| ~  vibrato
| +  harmonic
| x  Mute note
===============================================================================

            
            
Suggest correction
Creating personal tab
Creating personal tab
You can edit any tab online and save it as your Personal.

You can edit, replace or remove any tab part or add personal notes – all changes will be seen only by you.

Personal tabs can be accessed anytime from any device, even offline.
Learn more »
Give kudos to tab author, rate the tab!
1 2 3 4 5
comments
print report bad tab
guest
You may want to rate the tab now too:
select rating
Wanna post a correction for this tab? Suggest correction