Oops, an error
Loading. Please wait.

Begin Again Tab

version 1
version 1

Whole song

Video

67,972 views 54 this week
5 commentsread comments
1 2 3 4 5
excellent!
x 34
add to favorites
launch autoscroll
font size
0
reset
how to read this tab
guitar tuner
Tab Pro tools
  • play this tab
  • loop segment
  • change instrument
  • show fretboard
  • metronome
×
Best way to learn
"Begin Again"
Autoscroll
slow
fast
+/-
esc
set tempo
stop
Contributor
Difficulty
intermediate
Hey! So I wanted to learn the tab for this song but they didn't have it on 
the website so I decided to tab it myself! 
You can't hear the tab in the chorus so I just made up some tabbing
that goes along with the chords. 
Hope you enjoy! Please Rate! :)

Standard Tuning
No Capo

Intro:
 G                            
e|------------3--------------|------------3--------------|
b|------3-------3---3--------|------3-------3---3--------|
g|--0-----0-------0---0---0--|--0-----0-------0---0---0--|
D|----0-----0-----------0----|----0-----0-----------0----|
A|---------------------------|---------------------------|
E|3-----------------3--------|3-----------------3--------|

Verse 1:

Took a deep breath in the mirror He didn't like it when I wore high heels
 G                            
e|------------3--------------|------------3--------------|
b|------3-------3---3--------|------3-------3---3--------|
g|--0-----0-------0---0---0--|--0-----0-------0---0---0--|
D|----0-----0-----------0----|----0-----0-----------0----|
A|---------------------------|---------------------------|
E|3-----------------3--------|3-----------------3--------|

But I do
Cadd9
e|------------3--------------|------------3--------------|
b|------3-------3---3--------|------3-------3---3--------|
g|--0-----0-------0---0---0--|--0-----0-------0---0---0--|
D|----2-----2-----------2----|----2-----2-----------2----|
A|3-----------------3--------|3-----------------3--------|
E|---------------------------|---------------------------|

Turned the lock and put my headphones on He always said he didn't get this song
 G                            
e|------------3--------------|------------3--------------|
b|------3-------3---3--------|------3-------3---3--------|
g|--0-----0-------0---0---0--|--0-----0-------0---0---0--|
D|----0-----0-----------0----|----0-----0-----------0----|
A|---------------------------|---------------------------|
E|3-----------------3--------|3-----------------3--------|

But I do, I do
Cadd9
e|------------3--------------|------------3--------------|
b|------3-------3---3--------|------3-------3---3--------|
g|--0-----0-------0---0---0--|--0-----0-------0---0---0--|
D|----2-----2-----------2----|----2-----2-----------2----|
A|3-----------------3--------|3-----------------3--------|
E|---------------------------|---------------------------|

Break:
 G                            
e|------------3--------------|------------3--------------|
b|------3-------3---3--------|------3-------3---3--------|
g|--0-----0-------0---0---0--|--0-----0-------0---0---0--|
D|----0-----0-----------0----|----0-----0-----------0----|
A|---------------------------|---------------------------|
E|3-----------------3--------|3-----------------3--------|
 
Verse 2:

Walked in expecting you'd be late But you got here early and you stand and wave
 G                            
e|------------3--------------|------------3--------------|
b|------3-------3---3--------|------3-------3---3--------|
g|--0-----0-------0---0---0--|--0-----0-------0---0---0--|
D|----0-----0-----------0----|----0-----0-----------0----|
A|---------------------------|---------------------------|
E|3-----------------3--------|3-----------------3--------|

I walk to you
Cadd9
e|------------3--------------|------------3--------------|
b|------3-------3---3--------|------3-------3---3--------|
g|--0-----0-------0---0---0--|--0-----0-------0---0---0--|
D|----2-----2-----------2----|----2-----2-----------2----|
A|3-----------------3--------|3-----------------3--------|
E|---------------------------|---------------------------|

You pull my chair out and help me in And you don't know how nice that is
 G                            
e|------------3--------------|------------3--------------|
b|------3-------3---3--------|------3-------3---3--------|
g|--0-----0-------0---0---0--|--0-----0-------0---0---0--|
D|----0-----0-----------0----|----0-----0-----------0----|
A|---------------------------|---------------------------|
E|3-----------------3--------|3-----------------3--------|

But I do
Cadd9
e|------------3--------------|------------3--------------|
b|------3-------3---3--------|------3-------3---3--------|
g|--0-----0-------0---0---0--|--0-----0-------0---0---0--|
D|----2-----2-----------2----|----2-----2-----------2----|
A|3-----------------3--------|3-----------------3--------|
E|---------------------------|---------------------------|

Chorus:

And you throw your head back laughing like a 
Cadd9
e|------------3--------------|
b|------3-------3---3--------|
g|--0-----0-------0---0---0--|
D|----2-----2-----------2----|
A|3-----------------3--------|
E|---------------------------|
 
little kid
 D
e|------0-----3-----0------|
b|--3-----3-----3-----3----|
g|----2-----2-----2-----2--|
D|0------------------------|
A|-------------------------|
E|-------------------------|

I think it's strange that you think I'm funny cause 
 Em
e|------------0--------------|
b|------0-------0---0--------|
g|--0-----0-------0---0---0--|
D|----2-----2-----------2----|
A|2--------------------------|
E|---------------------------|

he never did
 G                            
e|------------3--------------|
b|------3-------3---3--------|
g|--0-----0-------0---0---0--|
D|----0-----0-----------0----|
A|---------------------------|
E|3-----------------3--------|
 
I've been spending the last 8 months
Cadd9
e|------------3--------------|
b|------3-------3---3--------|
g|--0-----0-------0---0---0--|
D|----2-----2-----------2----|
A|3-----------------3--------|
E|---------------------------|
 
Thinking all love ever does is 
D
e|------0-----3-----0------|
b|--3-----3-----3-----3----|
g|----2-----2-----2-----2--|
D|0------------------------|
A|-------------------------|
E|-------------------------|

break   and burn  and end
G          D         Em
e|----3----|----2----|----0------------|
b|0--------|3-----3--|0-----0----------|
g|--0---0--|--2------|--0-----0--------|
D|---------|0--------|----------2------|
A|---------|---------|------------2----|
E|3--------|---------|0-------------0--|

But on a Wednesday in a cafe, I watched it begin again
Cadd9                        D
e|------------3--------------|------0-----5--|
b|------3-------3---3--------|--3-----3------|
g|--0-----0-------0---0---0--|----2-----2----|
D|----2-----2-----------2----|0--------------|
A|3-----------------3--------|---------------|
E|---------------------------|---------------|

Verse 3:

He said he never met one girl Who had as many James Taylor records as you
G                            
e|------------3--------------|------------3--------------|
b|------3-------3---3--------|------3-------3---3--------|
g|--0-----0-------0---0---0--|--0-----0-------0---0---0--|
D|----0-----0-----------0----|----0-----0-----------0----|
A|---------------------------|---------------------------|
E|3-----------------3--------|3-----------------3--------|
 
But I do
Cadd9
e|------------3--------------|------------3--------------|
b|------3-------3---3--------|------3-------3---3--------|
g|--0-----0-------0---0---0--|--0-----0-------0---0---0--|
D|----2-----2-----------2----|----2-----2-----------2----|
A|3-----------------3--------|3-----------------3--------|
E|---------------------------|---------------------------|

We tell stories and you don't know why I'm coming off a little shy
G                            
e|------------3--------------|------------3--------------|
b|------3-------3---3--------|------3-------3---3--------|
g|--0-----0-------0---0---0--|--0-----0-------0---0---0--|
D|----0-----0-----------0----|----0-----0-----------0----|
A|---------------------------|---------------------------|
E|3-----------------3--------|3-----------------3--------|
 
But I do
Cadd9
e|------------3--------------|------------3--------------|
b|------3-------3---3--------|------3-------3---3--------|
g|--0-----0-------0---0---0--|--0-----0-------0---0---0--|
D|----2-----2-----------2----|----2-----2-----------2----|
A|3-----------------3--------|3-----------------3--------|
E|---------------------------|---------------------------|

Chorus:

And you throw your head back laughing like a 
Cadd9
e|------------3--------------|
b|------3-------3---3--------|
g|--0-----0-------0---0---0--|
D|----2-----2-----------2----|
A|3-----------------3--------|
E|---------------------------|
 
little kid
 D
e|------0-----3-----0------|
b|--3-----3-----3-----3----|
g|----2-----2-----2-----2--|
D|0------------------------|
A|-------------------------|
E|-------------------------|

I think it's strange that you think I'm funny cause 
 Em
e|------------0--------------|
b|------0-------0---0--------|
g|--0-----0-------0---0---0--|
D|----2-----2-----------2----|
A|2--------------------------|
E|---------------------------|

he never did
 G                            
e|------------3--------------|
b|------3-------3---3--------|
g|--0-----0-------0---0---0--|
D|----0-----0-----------0----|
A|---------------------------|
E|3-----------------3--------|
 
I've been spending the last 8 months
Cadd9
e|------------3--------------|
b|------3-------3---3--------|
g|--0-----0-------0---0---0--|
D|----2-----2-----------2----|
A|3-----------------3--------|
E|---------------------------|
 
Thinking all love ever does is 
D
e|------0-----3-----0------|
b|--3-----3-----3-----3----|
g|----2-----2-----2-----2--|
D|0------------------------|
A|-------------------------|
E|-------------------------|

break   and burn  and end
G          D         Em
e|----3----|----2----|----0------------|
b|0--------|3-----3--|0-----0----------|
g|--0---0--|--2------|--0-----0--------|
D|---------|0--------|----------2------|
A|---------|---------|------------2----|
E|3--------|---------|0-------------0--|

But on a Wednesday in a cafe, I watched it begin again
Cadd9                        D
e|------------3--------------|------0-----5--|
b|------3-------3---3--------|--3-----3------|
g|--0-----0-------0---0---0--|----2-----2----|
D|----2-----2-----------2----|0--------------|
A|3-----------------3--------|---------------|
E|---------------------------|---------------|

Break:
                                    
e|-----------------|-----------------|-----------------|-----------------|
b|0-h3-3-3-h1-0----|0-h3-3-3-h1-0----|0-h3-3-3-h1-0----|0-h3-3-3-h1-0----|
g|--------------0--|--------------0--|--------------0--|--------------0--|
D|-----------------|-----------------|-----------------|-----------------|
A|-----------------|-----------------|2----2-2----2----|2----2-2----2----|
E|3----3-3----3----|3----3-3----3----|-----------------|-----------------|

 
Verse 4:

And we walked down the block to my car and I almost brought him up
Cadd9                        D
e|------------3--------------|------0-----3-----0------|
b|------3-------3---3--------|--3-----3-----3-----3----|
g|--0-----0-------0---0---0--|----2-----2-----2-----2--|
D|----2-----2-----------2----|0------------------------|
A|3-----------------3--------|-------------------------|
E|---------------------------|-------------------------|

But you start to talk about the movies that your family watches
Cadd9                        D
e|------------3--------------|------0-----3-----0------|
b|------3-------3---3--------|--3-----3-----3-----3----|
g|--0-----0-------0---0---0--|----2-----2-----2-----2--|
D|----2-----2-----------2----|0------------------------|
A|3-----------------3--------|-------------------------|
E|---------------------------|-------------------------|

Every single Christmas and I won't talk about that
Cadd9                        G
e|------------3--------------|------------3--------------|
b|------3-------3---3--------|------3-------3---3--------|
g|--0-----0-------0---0---0--|--0-----0-------0---0---0--|
D|----2-----2-----------2----|----0-----0-----------0----|
A|3-----------------3--------|---------------------------|
E|---------------------------|3-----------------3--------|

And for the first time, what's past is past
Cadd9
e|------------3--------------|
b|------3-------3---3--------|
g|--0-----0-------0---0---0--|
D|----2-----2-----------2----|
A|3-----------------3--------|
E|---------------------------| Repeat(3x)

Chorus:
And you throw your head back laughing like a 
Cadd9
e|------------3--------------|
b|------3-------3---3--------|
g|--0-----0-------0---0---0--|
D|----2-----2-----------2----|
A|3-----------------3--------|
E|---------------------------|
 
little kid
 D
e|------0-----3-----0------|
b|--3-----3-----3-----3----|
g|----2-----2-----2-----2--|
D|0------------------------|
A|-------------------------|
E|-------------------------|

I think it's strange that you think I'm funny cause 
 Em
e|------------0--------------|
b|------0-------0---0--------|
g|--0-----0-------0---0---0--|
D|----2-----2-----------2----|
A|2--------------------------|
E|---------------------------|

he never did
 G                            
e|------------3--------------|
b|------3-------3---3--------|
g|--0-----0-------0---0---0--|
D|----0-----0-----------0----|
A|---------------------------|
E|3-----------------3--------|
 
I've been spending the last 8 months
Cadd9
e|------------3--------------|
b|------3-------3---3--------|
g|--0-----0-------0---0---0--|
D|----2-----2-----------2----|
A|3-----------------3--------|
E|---------------------------|
 
Thinking all love ever does is 
D
e|------0-----3-----0------|
b|--3-----3-----3-----3----|
g|----2-----2-----2-----2--|
D|0------------------------|
A|-------------------------|
E|-------------------------|

break   and burn  and end
G          D         Em
e|----3----|----2----|----0------------|
b|0--------|3-----3--|0-----0----------|
g|--0---0--|--2------|--0-----0--------|
D|---------|0--------|----------2------|
A|---------|---------|------------2----|
E|3--------|---------|0-------------0--|

But on a Wednesday in a cafe, I watched it begin again
Cadd9                        D
e|------------3--------------|------0-----5--|
b|------3-------3---3--------|--3-----3------|
g|--0-----0-------0---0---0--|----2-----2----|
D|----2-----2-----------2----|0--------------|
A|3-----------------3--------|---------------|
E|---------------------------|---------------|

Refrain:

But on a Wednesday in a cafe, I watched it begin again 
Cadd9                        D
e|------------3--------------|------0-----5(hold)--|
b|------3-------3---3--------|--3-----3------------|
g|--0-----0-------0---0---0--|----2-----2----------|
D|----2-----2-----------2----|0--------------------|
A|3-----------------3--------|---------------------|
E|---------------------------|---------------------|
comments
print report bad tab
5 comments total. Showing first comments.
0 reply
cristy♥twilight wrote on November 6 2012, 01:34 pm

great job:)

0 reply
sophiaa wrote on December 25 2012, 02:23 am

hey :) may i know how fast the plucking is? :)

+1 reply
catking99 wrote on December 31 2012, 11:45 am

I use the picking for the beginning(intro) and strumming for the rest.

I want to post or [tab]
guest
You may want to rate the tab now too:
select rating
Please do not post tabs as comments. Select "correction" instead!