Oops, an error
Loading. Please wait.

Begin Again tab

version 2
version 2

Whole song

  • More accurate picking pattern, better rhythm layout, more accurate outro.

Video

739 views 3 this week
no commentswrite comment
1 2 3 4 5
3 more votes to show rating
add to favorites
×
Save as Personal and add changes to this tab that will be seen only by you. Learn more ›
×
You can save this tab as Personal to edit and correct it or add notes. All changes will be seen only by you. Learn more »
launch autoscroll
font size
0
reset
how to read this tab
guitar tuner
edit
Autoscroll
slow
fast
+/-
esc
set tempo
stop
Author
Difficulty
About this tab version
More accurate picking pattern, better rhythm layout, more accurate outro. Was this info helpful? Yes No
-------------------------------------------------------------------------------
                             BEGIN AGAIN - Taylor Swift
-------------------------------------------------------------------------------
Tabbed by: Phire
E-mail: jenny@phirework.com

Tuning: Standard

[Verse 1]
Took a deep breath in the...       he didn't like it when I wore high heels
Turned the lock and put my...      he always said he didn't get this song

[Verse 2]
Walked in expecting you'd be...    but you got here early and you stand and wave
You pull my chair out and help...  and you don't know how nice that is

[Verse 3]
You said you never met one girl... had as many James Taylor records as you
We tell stories and you don't...   I'm coming off a little shy

G
e|--------------3------------------|--------------3------------------|
b|------3----------------3------3--|------3----------------3------3--|
g|--0-------0-------0-------0------|--0-------0-------0-------0------|
D|----0---0---0---0---0--------0---|----0---0---0---0---0--------0---|
A|---------------------------------|---------------------------------|
E|3-----------------------3--------|3-----------------------3--------|

[Verse 1]
But I do
But I do                           I do

[Verse 2]
I walk to you
But I do

[Verse 3] 
But I do
But I do                           I do

Cadd9
e|--------------3---------------3--|--------------3------------------|
b|------3---------------3----------|------3---------------3-------3--|
g|--0-------0-------0-------0------|--0-------0-------0-------0------|
D|----2---2---2---2---2-------2----|----2---2---2---2---2-------2----|
A|3-----------------------3--------|3-----------------------3--------|
E|---------------------------------|---------------------------------|



[Break]

G
e|--------------3------------------|--------------3------------------|
b|------3----------------3------3--|------3----------------3------3--|
g|--0-------0-------0-------0------|--0-------0-------0-------0------|
D|----0---0---0---0---0--------0---|----0---0---0---0---0--------0---|
A|---------------------------------|---------------------------------|
E|3-----------------------3--------|3-----------------------3--------|



[Chorus]

And you throw your head back...    little kid
Cadd9                              D/Dsus4
e|--------------3---------------3--|------0-------2-------3-------2--|
b|------3---------------3----------|--3-------3-------3-------3------|
g|--0-------0-------0-------0------|----2---2---2---2---2-------2----|
D|----2---2---2---2---2-------2----|0-----------------------0--------|
A|3-----------------------3--------|---------------------------------|
E|---------------------------------|---------------------------------|


I think it's strange that you...   he never did
Em                                 G
e|--------------0------------------|--------------3------------------|
b|------0---------------0-------0--|------3----------------3------3--|
g|--0-------0-------0-------0------|--0-------0-------0-------0------|
D|----2---2---2---2---2-------2----|----0---0---0---0---0--------0---|
A|2-----------------------2--------|---------------------------------|
E|---------------------------------|3-----------------------3--------|


I've been spending the last 8 months thinking all love ever does is 
Cadd9                              D/Dsus4
e|--------------3---------------3--|------0-------2-------3-------2--|
b|------3---------------3----------|--3-------3-------3-------3------|
g|--0-------0-------0-------0------|----2---2---2---2---2-------2----|
D|----2---2---2---2---2-------2----|0-----------------------0--------|
A|3-----------------------3--------|---------------------------------|
E|---------------------------------|---------------------------------|


break              and burn         and end
G                  D/Dsus4          Em
e|--------------3--------3-------2-|--------------0------------------|
b|------3------------3-------3-----|------0---------------0-------0--|
g|--0-------0----------2---2---2---|--0-------0-------0-------0------|
D|----0---0---0----0---------------|----2---2---2---2---2-------2----|
A|---------------------------------|2-----------------------2--------|
E|3--------------------------------|---------------------------------|


But on a wednesday, in a cafe      I watched it begin again
Cadd9                              D/Dsus4
e|--------------3---------------3--|------3-------2-------3----------|
b|------3---------------3----------|--3-------3-------3-------3------|
g|--0-------0-------0-------0------|----2---2---2---2---2-------2----|
D|----2---2---2---2---2-------2----|0-----------------------0--------|
A|3-----------------------3--------|---------------------------------|
E|---------------------------------|---------------------------------|



[Break]
G
e|--------------3------------------|--------------3------------------|
b|------3----------------3------3--|------3----------------3------3--|
g|--0-------0-------0-------0------|--0-------0-------0-------0------|
D|----0---0---0---0---0--------0---|----0---0---0---0---0--------0---|
A|---------------------------------|---------------------------------|
E|3-----------------------3--------|3-----------------------3--------|

Cadd9                              D/Dsus4
e|--------------3---------------3--|------3-------2-------3----------|
b|------3---------------3----------|--3-------3-------3-------3------|
g|--0-------0-------0-------0------|----2---2---2---2---2-------2----|
D|----2---2---2---2---2-------2----|0-----------------------0--------|
A|3-----------------------3--------|---------------------------------|
E|---------------------------------|---------------------------------|



[Bridge]
And we walked down the block to my car and I almost brought him up
Cadd9                              D/Dsus4
e|--------------3---------------3--|------3-------2-------3----------|
b|------3---------------3----------|--3-------3-------3-------3------|
g|--0-------0-------0-------0------|----2---2---2---2---2-------2----|
D|----2---2---2---2---2-------2----|0-----------------------0--------|
A|3-----------------------3--------|---------------------------------|
E|---------------------------------|---------------------------------|


But you start to talk about       the movies that your family watches
Cadd9                              D/Dsus4
e|--------------3---------------3--|------3-------2-------3----------|
b|------3---------------3----------|--3-------3-------3-------3------|
g|--0-------0-------0-------0------|----2---2---2---2---2-------2----|
D|----2---2---2---2---2-------2----|0-----------------------0--------|
A|3-----------------------3--------|---------------------------------|
E|---------------------------------|---------------------------------|


Every single Christmas, and I won't talk about that
Cadd9                              G
e|--------------3---------------3--|--------------3------------------|
b|------3---------------3----------|------3----------------3------3--|
g|--0-------0-------0-------0------|--0-------0-------0-------0------|
D|----2---2---2---2---2-------2----|----0---0---0---0---0--------0---|
A|3-----------------------3--------|---------------------------------|
E|---------------------------------|3-----------------------3--------|


And for the first time, what's past is past
Cadd9 x 3                              
e|---------------------------------|
b|------3-------3-------3-------3--|
g|--0-------0-------0-------0------|
D|----2---2---2---2---2-------2----|
A|3-----------------------3--------|
E|---------------------------------|



[Chorus]




[Outro]
G                  D/Dsus4          Em
e|--------------3--------3-------2-|--------------0------------------|
b|------3------------3-------3-----|------0---------------0-------0--|
g|--0-------0----------2---2---2---|--0-------0-------0-------0------|
D|----0---0---0----0---------------|----2---2---2---2---2-------2----|
A|---------------------------------|2-----------------------2--------|
E|3--------------------------------|---------------------------------|

But on a Wednesday, in a cafe      I watched it begin again
Cadd9                              D/Dsus4
e|--------------3---------------3--|------3-------2-------3----------|
b|------3---------------3----------|--3-------3-------3--------------|
g|--0-------0-------0-------0------|----2---2---2---2---2------------|
D|----2---2---2---2---2-------2----|0--------------------------------|
A|3-----------------------3--------|---------------------------------|
E|---------------------------------|---------------------------------|

            
            
Suggest correction
Creating personal tab
Creating personal tab
You can edit any tab online and save it as your Personal.

You can edit, replace or remove any tab part or add personal notes – all changes will be seen only by you.

Personal tabs can be accessed anytime from any device, even offline.
Learn more »
Give kudos to tab author, rate the tab!
1 2 3 4 5
comments
print report bad tab
guest
You may want to rate the tab now too:
select rating
Wanna post a correction for this tab? Suggest correction