Oops, an error
Loading. Please wait.

Blank Space Bass Tab

version 3
version 3

Whole song

  • This are only the notes to the chords which you can play.

Interactive

46 views 1 this week
no commentswrite comment
1 2 3 4 5
2 more votes to show rating
add to favorites
launch autoscroll
font size
0
reset
guitar tuner
Autoscroll
slow
fast
+/-
esc
set tempo
stop
Help us to improve Ultimate-Guitar.com Take our survey!
×
Author
Difficulty
About this tab version
This are only the notes to the chords which you can play. Was this info helpful? Yes No
[Intro]

G|--------|
D|--------|
A|---5----|
E|--------|



[Verse]
   D
   Nice to meet you where you been I can show you incredible
G|---------------------------------------------------------------------------|
D|---------------------------------------------------------------------------|
A|-5-------5--------5---------5----5-5---5----5---5-5-5-5--------------------|
E|---------------------------------------------------------------------------|

   Bm
   things Magic, madness, heaven sin Saw you there and I thought
G|---------------------------------------------------------------------------|
D|---------------------------------------------------------------------------|
A|---------------------------------------------------------------------------|
E|-7-----7------7---------7-------7---7--7---7-----7---7--7------------------|

   G
   Oh my God, look at that face You look like my next mistake
G|---------------------------------------------------------------------------|
D|---------------------------------------------------------------------------|
A|---------------------------------------------------------------------------|
E|-3--3--3----3----3--3----3----3---3----3----3--3----3---3------------------|

   A7sus4                   A
   Love’s a game, want to plaaaaay?
G|---------------------------------------------------------------------------|
D|---------------------------------------------------------------------------|
A|---------------------------------------------------------------------------|
E|-0-----0--0-----0----0--0---0----------------------------------------------|

   D
   New money, suit and tie I can read you like a maga
G|---------------------------------------------------------------------------|
D|---------------------------------------------------------------------------|
A|-5---5------5-----5--5---5-5---5----5---5----5-5---------------------------|
E|---------------------------------------------------------------------------|

   Bm
   zine Ain't it funny rumors fly And I know you heard about 
G|---------------------------------------------------------------------------|
D|---------------------------------------------------------------------------|
A|---------------------------------------------------------------------------|
E|-7----7-----7--7-----7------7---7---7-7----7---7-----7---------------------|

   G
   Me so hey, lets be friends I'm dying to see how this one ends
G|---------------------------------------------------------------------------|
D|---------------------------------------------------------------------------|
A|---------------------------------------------------------------------------|
E|-3--3--3----3----3--3-------3---3-----3--3---3---3----3---3----------------|

   A
   Grab your passport and my hand
G|---------------------------------------------------------------------------|
D|---------------------------------------------------------------------------|
A|-0----0----0---0----0---0--0-----------------------------------------------|
E|---------------------------------------------------------------------------|

   G                        A
   I can make the bad guys good for a weekend
G|---------------------------------------------------------------------------|
D|---------------------------------------------------------------------------|
A|---------------------------------------------------------------------------|
E|-3-3---3----3---3---3----0----0---0-0---0----------------------------------|




[Chorus]

  D                                                                 Bm
   So it's gonna be forever          or it's gonna go down in flames
G|------------------------------------------------------------------------|
D|------------------------------------------------------------------------|
A|-5--5--5--5--5--5--5--5--5--5--5--5--5--5--5--5--5--5--5--5--5--5-------|
E|-------------------------------------------------------------------7----|
   
                                                                    Em
   You can tell me when it's over mmm If the high was worth the pain
G|------------------------------------------------------------------------|
D|------------------------------------------------------------------------|
A|------------------------------------------------------------------------|
E|-7--7--7--7--7--7--7--7--7--7--7--7--7--7--7--7--7--7--7--7--7--7--0----|

                                                           G
   Got a long list of ex-lovers They'll tell you I'm insane
G|------------------------------------------------------------------------|
D|------------------------------------------------------------------------|
A|------------------------------------------------------------------------|
E|-0--0--0--0--0--0--0--0--0--0--0--0--0--0--0--0--0--0--0--3-------------|
 
                                                          D
   Cause you know I love the players and you love the game
G|------------------------------------------------------------------------|
D|------------------------------------------------------------------------|
A|----------------------------------------------------------5-------------|
E|-3--3--3--3--3--3--3--3--3--3--3--3--3--3--3--3--3--3--3----------------|

  D                                                                  Bm
   Cause we're young and we're reckless   We'll take this way too far
G|------------------------------------------------------------------------|
D|------------------------------------------------------------------------|
A|-5--5--5--5--5--5--5--5--5--5--5--5--5--5--5--5--5--5--5----5--5--5-----|
E|---------------------------------------------------------------------7--|

                                                       Em
   It'll leave you breathless, mmm Or with a nasty scar
G|------------------------------------------------------------------------|
D|------------------------------------------------------------------------|
A|------------------------------------------------------------------------|
E|-7--7--7--7--7--7--7--7--7--7--7--7--7--7--7--7--7--7--0----------------|

                                                           G
   Got a long list of ex-lovers They'll tell you I'm insane
G|------------------------------------------------------------------------|
D|------------------------------------------------------------------------|
A|------------------------------------------------------------------------|
E|-0--0--0--0--0--0--0--0--0--0--0--0--0--0--0--0--0--0--0--3-------------|

                              G  N.C.
   But I got a blank space baby and I'll write your
G|------------------------------------------------------------------------|
D|------------------------------------------------------------------------|
A|------------------------------------------------------------------------|
E|-3--3--3--3--3--3--3--3--3--3-------------------------------------------|

    D
   name
G|----------------------|
D|----------------------|
A|--5-------------------|
E|----------------------|


G|---------------|
D|---------------|
A|-5--5----5--5--|
E|---------------|



[Verse]

   D
   Cherry lips, crystal skies I could show you incredible
G|---------------------------------------------------------------------------|
D|---------------------------------------------------------------------------|
A|---------------------------------------------------------------------------|
E|-5------5-----5-------5-----5-5-----5----5---5--5--5--5--------------------|

   Bm
   things Stolen kisses, pretty lies You're the king baby I'm your
G|---------------------------------------------------------------------------|
D|---------------------------------------------------------------------------|
A|---------------------------------------------------------------------------|
E|-7------7------7---7---7------7----7------7---7----7----7---7--------------|

   G
   queen Find out what you want Be that girl for a month
G|---------------------------------------------------------------------------|
D|---------------------------------------------------------------------------|
A|---------------------------------------------------------------------------|
E|-3-----3----3---3----3---3----3--3----3----3--3--3-------------------------|

   A7sus4                     A        
   Wait the worst is yet to come, oh no
G|---------------------------------------------------------------------------|
D|---------------------------------------------------------------------------|
A|-0----0---0-----0--0---0--0-----0--0---------------------------------------|
E|---------------------------------------------------------------------------|

   D                         
   Screaming crying perfect storms I can make all the tables
G|---------------------------------------------------------------------------|
D|---------------------------------------------------------------------------|
A|-5----5----5---5--5----5--5------5-5---5----5---5---5--5-------------------|
E|---------------------------------------------------------------------------|

   Bm
   turn Rose garden filled with thorns Keep you second guessing Like
G|---------------------------------------------------------------------------|
D|---------------------------------------------------------------------------|
A|---------------------------------------------------------------------------|
E|-7----7----7------7------7----7------7----7---7--7---7---7----7------------|

   G
   "Oh my god who is she?" I get drunk on jealousy But
G|---------------------------------------------------------------------------|
D|---------------------------------------------------------------------------|
A|---------------------------------------------------------------------------|
E|--3--3--3---3---3--3-----3-3--3------3--3--3-----3-------------------------|

   A
   you'll come back each time you leave Cause darlin' I'm a nightmare,
G|---------------------------------------------------------------------------|
D|---------------------------------------------------------------------------|
A|-0------0----0----0----0----0---0-----0-----0-------0---0--0---0-----------|
E|---------------------------------------------------------------------------|

   G N.C.
   dressed like a daydream
G|---------------------------------------------------------------------------|
D|---------------------------------------------------------------------------|
A|---------------------------------------------------------------------------|
E|-3-------------------------------------------------------------------------|



[Chorus]

  D                                                                 Bm
   So it's gonna be forever          or it's gonna go down in flames
G|------------------------------------------------------------------------|
D|------------------------------------------------------------------------|
A|-5--5--5--5--5--5--5--5--5--5--5--5--5--5--5--5--5--5--5--5--5--5-------|
E|-------------------------------------------------------------------7----|
   
                                                                    Em
   You can tell me when it's over mmm If the high was worth the pain
G|------------------------------------------------------------------------|
D|------------------------------------------------------------------------|
A|------------------------------------------------------------------------|
E|-7--7--7--7--7--7--7--7--7--7--7--7--7--7--7--7--7--7--7--7--7--7--0----|

                                                           G
   Got a long list of ex-lovers They'll tell you I'm insane
G|------------------------------------------------------------------------|
D|------------------------------------------------------------------------|
A|------------------------------------------------------------------------|
E|-0--0--0--0--0--0--0--0--0--0--0--0--0--0--0--0--0--0--0--3-------------|
 
                                                          D
   Cause you know I love the players and you love the game
G|------------------------------------------------------------------------|
D|------------------------------------------------------------------------|
A|----------------------------------------------------------5-------------|
E|-3--3--3--3--3--3--3--3--3--3--3--3--3--3--3--3--3--3--3----------------|

  D                                                                  Bm
   Cause we're young and we're reckless   We'll take this way too far
G|------------------------------------------------------------------------|
D|------------------------------------------------------------------------|
A|-5--5--5--5--5--5--5--5--5--5--5--5--5--5--5--5--5--5--5----5--5--5-----|
E|---------------------------------------------------------------------7--|

                                                       Em
   It'll leave you breathless, mmm Or with a nasty scar
G|------------------------------------------------------------------------|
D|------------------------------------------------------------------------|
A|------------------------------------------------------------------------|
E|-7--7--7--7--7--7--7--7--7--7--7--7--7--7--7--7--7--7--0----------------|

                                                           G
   Got a long list of ex-lovers They'll tell you I'm insane
G|------------------------------------------------------------------------|
D|------------------------------------------------------------------------|
A|------------------------------------------------------------------------|
E|-0--0--0--0--0--0--0--0--0--0--0--0--0--0--0--0--0--0--0--3-------------|

                              G  N.C.
   But I got a blank space baby and I'll write your
G|------------------------------------------------------------------------|
D|------------------------------------------------------------------------|
A|------------------------------------------------------------------------|
E|-3--3--3--3--3--3--3--3--3--3-------------------------------------------|

    D
   name
G|----------------------|
D|----------------------|
A|--5-------------------|
E|----------------------|



[Bridge]

  D           
   Boys only want love if it's torture
G|---------------------------------------------------------------------------|
D|---------------------------------------------------------------------------|
A|-5----5----5----5----5--5----5---5-----------------------------------------|
E|---------------------------------------------------------------------------|

   Don't say I didn't, say I didn't warn you
G|---------------------------------------------------------------------------|
D|---------------------------------------------------------------------------|
A|-5-----5---5--5------5---5-5------5----5-----------------------------------|
E|---------------------------------------------------------------------------|
  D  
   Boys only want love if it's torture
G|---------------------------------------------------------------------------|
D|---------------------------------------------------------------------------|
A|-5----5---5-----5----5--5----5---5-----------------------------------------|
E|---------------------------------------------------------------------------|
  D N.C.
   Don't say I didn't, say I didn't warn you
G|---------------------------------------------------------------------------|
D|---------------------------------------------------------------------------|
A|-5-------------------------------------------------------------------------|
E|---------------------------------------------------------------------------|


[Outro/ Chorus]

 D                                                                 Bm
   So it's gonna be forever          or it's gonna go down in flames
G|------------------------------------------------------------------------|
D|------------------------------------------------------------------------|
A|-5--5--5--5--5--5--5--5--5--5--5--5--5--5--5--5--5--5--5--5--5--5-------|
E|-------------------------------------------------------------------7----|
   
                                                                    Em
   You can tell me when it's over mmm If the high was worth the pain
G|------------------------------------------------------------------------|
D|------------------------------------------------------------------------|
A|------------------------------------------------------------------------|
E|-7--7--7--7--7--7--7--7--7--7--7--7--7--7--7--7--7--7--7--7--7--7--0----|

                                                           G
   Got a long list of ex-lovers They'll tell you I'm insane
G|------------------------------------------------------------------------|
D|------------------------------------------------------------------------|
A|------------------------------------------------------------------------|
E|-0--0--0--0--0--0--0--0--0--0--0--0--0--0--0--0--0--0--0--3-------------|
 
                                                          D
   Cause you know I love the players and you love the game
G|------------------------------------------------------------------------|
D|------------------------------------------------------------------------|
A|----------------------------------------------------------5-------------|
E|-3--3--3--3--3--3--3--3--3--3--3--3--3--3--3--3--3--3--3----------------|

  D                                                                  Bm
   Cause we're young and we're reckless   We'll take this way too far
G|------------------------------------------------------------------------|
D|------------------------------------------------------------------------|
A|-5--5--5--5--5--5--5--5--5--5--5--5--5--5--5--5--5--5--5----5--5--5-----|
E|---------------------------------------------------------------------7--|

                                                       Em
   It'll leave you breathless, mmm Or with a nasty scar
G|------------------------------------------------------------------------|
D|------------------------------------------------------------------------|
A|------------------------------------------------------------------------|
E|-7--7--7--7--7--7--7--7--7--7--7--7--7--7--7--7--7--7--0----------------|

                                                           G
   Got a long list of ex-lovers They'll tell you I'm insane
G|------------------------------------------------------------------------|
D|------------------------------------------------------------------------|
A|------------------------------------------------------------------------|
E|-0--0--0--0--0--0--0--0--0--0--0--0--0--0--0--0--0--0--0--3-------------|

                              G  N.C.
   But I got a blank space baby and I'll write your
G|------------------------------------------------------------------------|
D|------------------------------------------------------------------------|
A|------------------------------------------------------------------------|
E|-3--3--3--3--3--3--3--3--3--3-------------------------------------------|

    D
   name
G|----------------------|
D|----------------------|
A|----------------------|
E|----------------------|


************************************

| x   Dead note
| g   Grace note
| (n) Ghost note
| h   Hammer-on
| p   Pull-off
| r   Release
| >   Accented note
| t   Tapping
| b   Bend
| br  Bend release
| pb  Pre-bend
| pbr Pre-bend release
| /   Slide up
| \   Slide down
| ~   Vibrato
| s   Slap
| P   Pop
| PM  Palm mute
| TR  Trill
| N   Tremolo

************************************
Suggest correction
Give kudos to tab author, rate the tab!
1 2 3 4 5
comments
print report bad tab
guest
You may want to rate the tab now too:
select rating
Wanna post a correction for this tab? Suggest correction