Oops, an error
Loading. Please wait.

Change Chords

version 8
version 8
14,187 views 1 this week
2 commentsread comments
1 2 3 4 5
excellent!
x 4
add to favorites
launch autoscroll
font size
0
reset
transpose
0
reset
simplify chords
display chords
guitar tuner
Tab Pro tools
  • play this tab
  • loop segment
  • change instrument
  • show fretboard
  • metronome
×
Best way to learn
"Change"
Autoscroll
slow
fast
+/-
esc
set tempo
stop
Contributor
Taylor Swift
Change
Fearless
2009
Submitted by: paramore_fans@yahoo.com

Key: F

Tuning: Standard EADGBe

Chords used:
F -   133211
C/E - 032xxx
C -   x32010
Dm -  xx0231
Bb -  x13331
Gm -  355333


Intro: F--C/E--Dm--Bb-- x2

Guitar 2:
e|-5--5h6p5--5--5h6p5--5--5h6p5--------5--5h6p5--5--5h6p5--5--5h6p5--8--6--5-|
B|-------------------------------5--6----------------------------------------|
G|---------------------------------------------------------------------------|
D|---------------------------------------------------------------------------|
A|---------------------------------------------------------------------------|
E|---------------------------------------------------------------------------|

e|-5--5h6p5--5--5h6p5--5--5h6p5------------------------------6--5--5-|
B|-------------------------------5--6--8--6--8--6--6h8p6-------------|
G|--------------------------------------------------------5----------|
D|-------------------------------------------------------------------|
A|-------------------------------------------------------------------|
E|-------------------------------------------------------------------|


Verse 1:
F
  It's just a sad picture
C/E
  The final blow hits you
Dm
  Somebody else gets
         Bb
what you wanted again
F
  You know it's all the same
C/E
  Another time and place
Dm
  Repeating history and
Bb
you're getting sick of it


Refrain 1:
    Dm
But I believe in
Bb           C
whatever you do
            Bb
And I'll do anything
          C
to see it through


Chorus 1:
Because these things will
      F                C/E
change Can you feel it now?
                      Dm
These walls that they put up
                     Bb
to hold us back will fall down
             F
It's a revolution the time will
C/E                    Dm
come for us to finally win
Bb                F    C/E
  We'll sing hallelujah
                Dm    Bb
We'll sing hallelujah oh


Interlude: F(hold)


Verse 2:
F
  So we've been outnumbered
C/E
  Raided and now cornered
Dm
  It's hard to fight when
    Bb
the fight ain't fair
F
  We're getting stronger now
C/E
  From things they never found
Dm
  They might be bigger but we're
Bb         C
faster and never scared


Refrain 2:
Dm              Bb
  You can walk away and
             C
say we don't need this
            Bb
But there's something in your
                 C
eyes says we can beat this


Chorus 2:

Cause these things will
      F                C/E
change Can you feel it now?
                      Dm
These walls that they put up
                     Bb
to hold us back will fall down
             F
It's a revolution the time will
C/E                    Dm
come for us to finally win
Bb                F    C/E
  We'll sing hallelujah
                Dm    Bb
We'll sing hallelujah oh


Interlude: Dm--Bb--F--C-- x2


Bridge:
F                Gm
  Tonight we're standing
       Dm
on our knees
To fight for what we
Bb                   F
worked for all these years
               Gm
The battle was long it's
                 Dm
the fight of our lives
Will we stand up
Bb(hold)
champions tonight?


Chorus 3:
It was the night things
       C
changed Can you see it now?
                      Dm
These walls that they put up
                Bb
to hold us back fell down
             F
It's a revolution throw your
      C/E
hands up cause we never gave
Dm Bb                F    C/E
in   We'll sing hallelujah
                Dm   Bb
We'll sing hallelujah
     F    Gm Dm Bb
Hallelujah


Outro: F--C/E--Dm--Bb-- x4
comments
print report bad tab
2 comments total.
0 reply
JB533264 wrote on October 25 2009, 01:50 am

this version is realy good thanks so much 4 posting it :)

0 reply
mitchmitch5962 wrote on April 5 2010, 12:42 am

I love the intro!! The rest is very correct 2!!

I want to post or [tab]
guest
You may want to rate the tab now too:
select rating
Please do not post tabs as comments. Select "correction" instead!