Oops, an error
Loading. Please wait.

Come In With The Rain Tab

11,160 views 3 this week
no commentswrite comment
1 2 3 4 5
excellent!
x 5
add to favorites
launch autoscroll
font size
0
reset
how to read this tab
guitar tuner
Tab Pro tools
  • play this tab
  • loop segment
  • change instrument
  • show fretboard
  • metronome
×
Best way to learn
"Come In With The Rain"
Autoscroll
slow
fast
+/-
esc
set tempo
stop
Contributor
                
                      
Intro:
    D                A                Em               G                D
e|--2-2-3-3---2------0-0-3-3---2------0-0-3-3---2------3---3-3----------2-----|
B|--3-3-----3---3----2-2-----3---3----0-0-----3---3----0---0-0----------3-----|
G|--2-2-----------2--2-2-----------2--0-0-----------2--0---0-0----------2-----|
D|--0-0--------------2-2--------------2-2--------------0---0-0--------0-0-----|
A|-------------------0-0--------------2-2--------------2---2-2----0h2---------|
E|------------------------------------0-0--------------3---3-3----------------|

Verse:
    D                A                Em               G
e|--2----------------0----------------0----------------3----------------------| Listen to 
B|--3----------------2----------------0----------------0----------------------| the song for 
G|--2----------------2----------------0----------------0----------------------|the strumming
D|--0----------------2----------------2----------------0----------------------| pattern.
A|-------------------0----------------2----------------2----------------------|
E|------------------------------------0----------------3----------------------|
I could go back to every laugh...
    Em            D                G                        A
e|--0-------------2----------------3------------------------0---------------|
B|--0-------------3----------------0------------------------2---------------|
G|--0-------------2----------------0------------------------2---------------|
D|--2-------------0----------------0------------------------2---------------|
A|--2------------------------------2------------------------0---------------|
E|--0------------------------------3----------------------------------------|
Talk to the wind, talk to the sky, talk to the man with the reasons why

    G                                   A             G
e|--3-----------------------------------0-------------3---------------------|
B|--0-----------------------------------2-------------0---------------------|
G|--0-----------------------------------2-------------0---------------------|
D|--0-----------------------------------2-------------0---------------------|
A|--2-----------------------------------0-------------2---------------------|
E|--3-------------------------------------------------3---------------------|
          ...let me know what you find

Chorus:
    C        D        G        Em       C        D        G        A
e|--0--------2--------3--------0--------0--------2--------3--------0--------|
B|--1--------3--------0--------0--------1--------3--------0--------2--------|
G|--0--------2--------0--------0--------0--------2--------0--------2--------|
D|--2--------0--------0--------2--------2--------0--------0--------2--------|
A|--3-----------------2--------2--------3-----------------2--------0--------|
E|--------------------3--------0--------------------------3-----------------|
     I'll leave my window open,           'cause I'm too tired at night too call your name

    C        D        G        Em       C        D        Em       C
e|--0--------2--------3--------0--------0--------2--------0--------0--------|
B|--1--------3--------0--------0--------1--------3--------0--------1--------|
G|--0--------2--------0--------0--------0--------2--------0--------0--------|
D|--2--------0--------0--------2--------2--------0--------2--------2--------|
A|--3-----------------2--------2--------3-----------------2--------3--------|
E|--------------------3--------0--------------------------0-----------------|
     Just know I'm right here hoping,     that you'll come in with the rain

Repeat the Verse and Chorus:

The chord pattern under the violin section is D, A, Em, and G.

Bridge:
    Em               G                     D                 A               G
e|--0----------------3---------------------2-----------------0---------------3---------------|
B|--0----------------0---------------------3-----------------2---------------0--------12-----|
G|--0----------------0---------------------2-----------------2---------------0-----12----12--|
D|--2----------------0---------------------0-----------------2---------------0---------------|
A|--2----------------2---------------------------------------0---------------2---------------|
E|--0----------------3-------------------------------------------------------3---------------|
    I've watched you so long screamed your name I don't know what else I can say 

   C         D         G         Em        C         D         G     A
e|---------|-----2---|---------|---------|---------|-----2---|-------0---------|
B|-----1---|-------3-|-----0---|-----0---|-----1---|-------3-|-----0-2---------|
G|-------0-|---2-----|-------0-|-------0-|-------0-|---2-----|-------2---------|
D|---2-----|-0-------|---------|---------|---2-----|-0-------|-------2---------|
A|-3-------|---------|---2-----|---2-----|-3-------|---------|---2---0---------|
E|---------|---------|-3-------|-0-------|---------|---------|-3---------------|
But I'll leave my window open...

    C        D        G        Em       C        D        Em       C
e|--0--------2--------3--------0--------0--------2--------0--------0--------|
B|--1--------3--------0--------0--------1--------3--------0--------1--------|
G|--0--------2--------0--------0--------0--------2--------0--------0--------|
D|--2--------0--------0--------2--------2--------0--------2--------2--------|
A|--3-----------------2--------2--------3-----------------2--------3--------|
E|--------------------3--------0--------------------------0-----------------|
     Just know I'm right here hoping,     that you'll come in with the rain

    D                A                Em               G
e|--2----------------0----------------0----------------3----------------------| 
B|--3----------------2----------------0----------------0----------------------| 
G|--2----------------2----------------0----------------0----------------------|
D|--0----------------2----------------2----------------0----------------------|
A|-------------------0----------------2----------------2----------------------|
E|------------------------------------0----------------3----------------------|
I could go back to every laugh,                    but I don't wanna' go there anymore

That should be it, hope you like it!
comments
print report bad tab
I want to post or [tab]
guest
You may want to rate the tab now too:
select rating
Please do not post tabs as comments. Select "correction" instead!