Oops, an error
Loading. Please wait.

Dark Blue Tennessee Chords

version 1
version 1

Whole song

Interactive

21,501 views 33 this week
4 commentsread comments
1 2 3 4 5
x 25
add to favorites
×
Save as Personal and add changes to this tab that will be seen only by you. Learn more ›
×
You can save this tab as Personal to edit and correct it or add notes. All changes will be seen only by you. Learn more »
save as personal
new!
launch autoscroll
font size
0
reset
transpose
0
reset
display chords
guitar tuner
Autoscroll
slow
fast
+/-
esc
set tempo
stop
Difficulty
novice
Strumming
There is no strumming pattern for this song yet. and get +5 IQ
-------------------------------------------------------------------------------
                             DARK BLUE TENNESSEE - Taylor Swift
-------------------------------------------------------------------------------
Tabbed by: Evadne

Tuning: Standard

Intro

e|-----3-----3-----0---------3-|
B|---1-----1-----1---1-----3---|
G|-----------------------------|
D|-------------3-------3-------|
A|-3-----0---------------------|
E|-----------------------3-----| x2

Verse 1:
C              G           F
   He said, "I got me a nice new apartment
C     G                  F
   In a city, wouldn't you have hated that?
C              G           F
   I'm getting by with the broken heart you left me with."
C                  G             F
   He hangs up the phone and she   whispers back,

Chorus:

F              G              C            Am
   Missing you   like this is   such sweet sorrow
F              G       Am
Won't you come back to me?
F            G             C         Am
   I'll be here, today and   here tomorrow
   F         G      C
In dark blue   Tennessee

Verse 2:

He was lying when he said he moved to L.A.
He's just hiding out on the other side of town
With his head in his hands and she's just 7 miles away
He's staring out the window and puts her picture down saying,

Chorus 2:

Missing you like this is such sweet sorrow
Won't you come back to me?
I'll be here, today and here tomorrow
In dark blue Tennessee

Short instrumental (I don't know how to play this)

Bridge: [* one down stroke]
F                               G
   She almost called him on the night that he wrote
F             C            Am      G* 
 These simple words on his goodbye note

Chorus 3: [* one down stroke]

F*             G*             C*            Am*
   Missing you   like this is   such sweet sorrow
F*             G*      Am*
Won't you come back to me?
F            G             C         Am
   I'll be here, today and   here tomorrow
   F         G      C
In dark blue   Tennessee
   F*        G*      C
In dark blue   Tennessee


Suggest correction
comments
print report bad tab
4 comments total. Showing first comments.
0 reply
blueguitar14 212 Jul 19, 2012 07:09 PM

Everything is perfect except for the Am on "come back to me" in the second chorus line. It should be a C. Thanks for posting:)

0 reply
zhenliang1102 10 Oct 02, 2014 10:32 PM

I think the intro sounds weird. It should be
e|-----------------0--------------3-|
B|---1-----1-----1---1----------3---|
G|-----0-----0-------------0--0-----|
D|-------------3-------3------------|
A|-3-----0--------------------------|
E|-----------------------3----------|

0 reply
zhenliang1102 10 Oct 02, 2014 10:32 PM

e|-----------------0--------------3-|
B|---1-----1-----1---1----------3---|
G|-----0-----0-------------0--0-----|
D|-------------3-------3------------|
A|-3-----0--------------------------|
E|-----------------------3----------|

guest
Wanna post a correction for this tab? Suggest correction