Oops, an error
Loading. Please wait.
We have an official Enchanted tab made by UG professional guitarists. Check out the tab »
×
1,368 views 1 this week
2 commentsread comments
1 2 3 4 5
2 more votes to show rating
add to favorites
×
Save as Personal and add changes to this tab that will be seen only by you. Learn more ›
×
You can save this tab as Personal to edit and correct it or add notes. All changes will be seen only by you. Learn more »
launch autoscroll
font size
0
reset
guitar tuner
edit
Autoscroll
slow
fast
+/-
esc
set tempo
stop
1:23 Pre-Chorus
F#|-----------------------------------------------------------------|
C#|-----------------------------------------------------------------|
G#|-5-5-5-5-5-5-5-9-------------------------------------------------|
C#|-----------------4-4-4-4-4-4-4-4-2-2-2-2-2-2-2-2-2-2-2-2-2-2-2---|
    1 + 2 + 3 + 4 + 1 + 2 + 3 + 4 + 1 + 2 + 3 + 4 + 1 + 2 + 3 + 4 +

1:35 Chorus
F#|-----------------------------------------------------------------|
C#|-----------------------------------------------------------------|
G#|-----------------------------------------------------------------|
C#|-0-0-0-0-0-0-0-0-7-7-7-7-2-2-2-2-0-0-0-0-0-0-0-0-7-7-7-7-2-2-2-2-|
    1 + 2 + 3 + 4 + 1 + 2 + 3 + 4 + 1 + 2 + 3 + 4 + 1 + 2 + 3 + 4 +

F#|-----------------------------------------------------------------|
C#|-----------------------------------------------------------------|
G#|-----------------------------------------------------------------|
C#|-0-0-0-0-0-0-0-0-7-7-7-7-2-2-2-2-0-0-0-0-0-0-0-0-4-------2-------|
    1 + 2 + 3 + 4 + 1 + 2 + 3 + 4 + 1 + 2 + 3 + 4 + 1 + 2 + 3 + 4 +

F#|-------------------------------------------------|
C#|-------------------------------------------------|
G#|-----------------7-9-12----------9-7-\-\---------|
C#|-7-----------------------------------------------|
    1 + 2 + 3 + 4 + 1 + 2 + 3 + 4 + 1 + 2 + 3 + 4 +

2:04 Verse
F#|-----------------------------------------------------------------|
C#|-----------------------------------------------------------------| 
G#|-------------------------------------------------------------9-7-|
C#|-7-7-7-7-7-7-7-7-6-6-6-6-6-6-6-6-7-7-7-7-7-7-7-7-7-7-7-7-7-7-----|
    1 + 2 + 3 + 4 + 1 + 2 + 3 + 4 + 1 + 2 + 3 + 4 + 1 + 2 + 3 + 4 +

F#|------------------------------------------------------------------|
C#|------------------------------------------------------------------|
G#|-------------9-7-------------7-7-5-5-5-5-5-5-5-5-------------467--|
C#|-7-7-7-7-7-7-----6-6-6-6-6-6---------------------7-7-7-7-7-7------|
    1 + 2 + 3 + 4 + 1 + 2 + 3 + 4 + 1 + 2 + 3 + 4 + 1 + 2 + 3 + 4  +

2:28 Pre-Chorus
F#|-------------------------------------------------------------------|
C#|---------------------------------5---------------------------------|
G#|-5-5-5-5-5-5-5-579-9-9-9-9-9-9-9---7-7-7-7-7-7-7-797-7-7-7-7-7-7-7-|
C#|-------------------------------------------------------------------|
    1 + 2 + 3 + 4 + 1 + 2 + 3 + 4 +   1 + 2 + 3 + 4 + 1 + 2 + 3 + 4 +

F#|-------------------------------------------------------------------|
C#|---------------------------------5---------------------------------|
G#|-5-5-5-5-5-5-5-579-9-9-9-9-9-9-9---7-7-7-7-7-7-7-79----------------|
C#|---------------------------------------------------2-2-2-252-2-2---|
    1 + 2 + 3 + 4 + 1 + 2 + 3 + 4 +   1 + 2 + 3 + 4 + 1 + 2 + 3 + 4 +

2:51 Chorus
F#|-----------------------------------------------------------------|
C#|-----------------------------------------------------------------|
G#|-----------------------------------------------------------------|
C#|-0-0-0-0-0-0-0-0-7-7-7-7-2-2-2-2-0-0-0-0-0-0-0-0-7-7-7-7-2-2-2-2-|
    1 + 2 + 3 + 4 + 1 + 2 + 3 + 4 + 1 + 2 + 3 + 4 + 1 + 2 + 3 + 4 +

F#|-----------------------------------------------------------------|
C#|-----------------------------------------------------------------|
G#|---------------------------------5-5-5-5-5-5-5-\-----------------|
C#|-0-0-0-0-0-0-0-0-7-7-7-7-2-2-2-2-----------------4-4-4-4-2-2-2-2-|
    1 + 2 + 3 + 4 + 1 + 2 + 3 + 4 + 1 + 2 + 3 + 4 + 1 + 2 + 3 + 4 +

F#|-----------------------------------------------------------------|
C#|-----------------------------------------------------------------|
G#|---------------------------------5-5-5-5-5-5-5-5-----------------|
C#|-0-0-0-0-0-0-0-0-7-7-7-7-2-2-2-2-----------------7-7-7-7-2-2-2-2-|
    1 + 2 + 3 + 4 + 1 + 2 + 3 + 4 + 1 + 2 + 3 + 4 + 1 + 2 + 3 + 4 +

F#|-----------------------------------------------------------------|
C#|-----------------------------------------------------------------|
G#|---------------------------------5-5-5-5-5-5-5-\-----------------|
C#|-0-0-0-0-0-0-0-0-7-7-7-7-2-2-2-2-----------------4-4-4-4-2-2-2-2-|
    1 + 2 + 3 + 4 + 1 + 2 + 3 + 4 + 1 + 2 + 3 + 4 + 1 + 2 + 3 + 4 +

3:38 Bridge
F#|-----------------------------------------------------------------|
C#|----------------------------------------------------------7-7----|
G#|-------------9-7-4-4-4-4-4-4-7-7-5-5-5-5-5-5-9-9-0-0-0-079-9-975-|
C#|-7-7-7-7-7-7-----------------------------------------------------|
    1 + 2 + 3 + 4 + 1 + 2 + 3 + 4 + 1 + 2 + 3 + 4 + 1 + 2 + 3 + 4 +

F#|-----------------------------------------------------------------|
C#|-----------------------------------------------------------------|
G#|-------------9-7-4-4-4-4-4-4-457-5-5-5-5-5-5-9-9-7-7-7-7-7-7-7-\-|
C#|-7-7-7-7-7-7-----------------------------------------------------|
    1 + 2 + 3 + 4 + 1 + 2 + 3 + 4 + 1 + 2 + 3 + 4 + 1 + 2 + 3 + 4 +

4:01
F#|-----------------------------------------------------------------|
C#|-------------------------------------0---0---4---4---4-----------|
G#|-5---5---5---5-7-9---9---7---7---5-----2---2-------------7---7---|
C#|-----------------------------------------------------------------|
    1 + 2 + 3 + 4 + 1 + 2 + 3 + 4 + 1 + 2 + 3 + 4 + 1 + 2 + 3 + 4 +

F#|-----------------------------------------------------------------|
C#|-----------------------------------------------------------------|
G#|-5---5---5---5---------------------------------------------------|
C#|---------------2-4-------2-------0---------------4-------2-------|
    1 + 2 + 3 + 4 + 1 + 2 + 3 + 4 + 1 + 2 + 3 + 4 + 1 + 2 + 3 + 4 +

4:25
F#|-----------------------------------------------------------------|
C#|-----------------------------------------------------------------|
G#|-----------------------------------------------------------------|
C#|-------------------------------------------------------------2-4-|
    1 + 2 + 3 + 4 + 1 + 2 + 3 + 4 + 1 + 2 + 3 + 4 + 1 + 2 + 3 + 4 +

F#|-----------------------------------------------------------------|
C#|-----------------------------------------------------247-7-------|
G#|-------------9-7-4-4-4-4-4-4-467-5-5-5-5-5-5-9-7-0-0-------7-\---|
C#|-7-7-7-7-7-7-----------------------------------------------------|
    1 + 2 + 3 + 4 + 1 + 2 + 3 + 4 + 1 + 2 + 3 + 4 + 1 + 2 + 3 + 4 +

4:48 Chorus
F#|-----------------------------------------------------------------|
C#|-----------------------------------------------------------------|
G#|---------------------------------------------------------7-7-7-7-|
C#|-0-0-0-0-0-0-0-0-7-7-7-7-2-2-2-2-0-0-0-0-0-0-0-0-7-7-7-7---------|
    1 + 2 + 3 + 4 + 1 + 2 + 3 + 4 + 1 + 2 + 3 + 4 + 1 + 2 + 3 + 4 +

F#|-----------------------------------------------------------------|
C#|-----------------------------------------------------------------|
G#|-----------------------------------------------------------------|
C#|-0-0-0-0-0-0-0-0-7-7-7-7-2-2-2-2-0-0-0-0-0-0-7-7-4-4-4-4-2-2-2-2-|
    1 + 2 + 3 + 4 + 1 + 2 + 3 + 4 + 1 + 2 + 3 + 4 + 1 + 2 + 3 + 4 +

F#|-----------------------------------------------------------------|
C#|---------------------------------------------------------2-------|
G#|---------------------------------5-5-5-5-5-5-5-5----------2------|
C#|-0-0-0-0-0-0-0-0-7-7-7-7-2-2-2-2-----------------7-7-7-7---2-4-2-|
    1 + 2 + 3 + 4 + 1 + 2 + 3 + 4 + 1 + 2 + 3 + 4 + 1 + 2 + 3 + 4 +

F#|-----------------------------------------------------------------|
C#|-----------------------------------------------------------------|
G#|-----------------------------------------------------------------|
C#|-0-0-0-0-0-0-0-0-7-7-7-7-2-2-2-2-0-0-0-0-0-0-0-0-4-4-4-2---2-2-2-|
    1 + 2 + 3 + 4 + 1 + 2 + 3 + 4 + 1 + 2 + 3 + 4 + 1 + 2 + 3 + 4 +

5:35 Outro 
F#|-----------------------------------------------------------------|
C#|-----------------------------------------------------------------|
G#|-------------9-7-4-4-4-4-4-4-457-5-5-5-5-5-5-5-5-----------------|
C#|-7-7-7-7-7-7-------------------------------------7---------------|
    1 + 2 + 3 + 4 + 1 + 2 + 3 + 4 + 1 + 2 + 3 + 4 + 1 + 2 + 3 + 4 +

Tabbed By Jack Mills

            
            
Suggest correction
Creating personal tab
Creating personal tab
You can edit any tab online and save it as your Personal.

You can edit, replace or remove any tab part or add personal notes – all changes will be seen only by you.

Personal tabs can be accessed anytime from any device, even offline.
Learn more »
Give kudos to tab author, rate the tab!
1 2 3 4 5
comments
print report bad tab
2 comments total.
0 reply
Motormouth1991 20 Aug 08, 2014 04:32 PM, edited at 08:33 pm

1:23 Pre-ChorusF#|-----------------------------------------------------------------|C#|---------------4-------------------------------------------------|G#|-5-5-5-5-5-5-5---------------------------------------------------|C#|-----------------4-4-4-4-4-4-4-4-2-2-2-2-2-2-2-2-2-2-2-2-2-2-2---| 1 + 2 + 3 + 4 + 1 + 2 + 3 + 4 + 1 + 2 + 3 + 4 + 1 + 2 + 3 + 4 +1:35 ChorusF#|-----------------------------------------------------------------|C#|-----------------------------------------------------------------|G#|-----------------0-0-0-0-------------------------0-0-0-0---------|C#|-0-0-0-0-0-0-0-0---------2-2-2-2-0-0-0-0-0-0-0-0---------2-2-2-2-| 1 + 2 + 3 + 4 + 1 + 2 + 3 + 4 + 1 + 2 + 3 + 4 + 1 + 2 + 3 + 4 +F#|-----------------------------------------------------------------|C#|-----------------------------------------------------------------|G#|-----------------0-0-0-0-----------------------------------------|C#|-0-0-0-0-0-0-0-0---------2-2-2-2-0-0-0-0-0-0-0-0-4-------2-------| 1 + 2 + 3 + 4 + 1 + 2 + 3 + 4 + 1 + 2 + 3 + 4 + 1 + 2 + 3 + 4 +F#|-------------------------------------------------|C#|---------------------7---------------------------|G#|-0---------------7h9-------------9-7-\-\---------|C#|-------------------------------------------------| 1 + 2 + 3 + 4 + 1 + 2 + 3 + 4 + 1 + 2 + 3 + 4 +2:04 VerseF#|-----------------------------------------------------------------|C#|-----------------------------------------------------------------| G#|-0-0-0-0-0-0-0-0-4-4-4-4-4-4-4-4-5-5-5-5-5-5-5-5-0-0-0-0-0-0-9-7-|C#|-----------------------------------------------------------------| 1 + 2 + 3 + 4 + 1 + 2 + 3 + 4 + 1 + 2 + 3 + 4 + 1 + 2 + 3 + 4 +F#|------------------------------------------------------------------|C#|------------------------------------------------------------------|G#|-0-0-0-0-0-0-9-7-4-4-4-4-4-4-7-7-5-5-5-5-5-5-5-5-0-0-0-0-0-0-467--|C#|------------------------------------------------------------------| 1 + 2 + 3 + 4 + 1 + 2 + 3 + 4 + 1 + 2 + 3 + 4 + 1 + 2 + 3 + 4 +2:28 Pre-ChorusF#|-----------------------------------------------------------------|C#|-----------------4-4-4-4-4-4-4-45--------------------------------|G#|-5-5-5-5-5-5-5-57----------------7-7-7-7-7-7-7-797-7-7-7-7-7-7-7-|C#|-----------------------------------------------------------------| 1 + 2 + 3 + 4 + 1 + 2 + 3 + 4 + 1 + 2 + 3 + 4 + 1 + 2 + 3 + 4 +F#|-----------------------------------------------------------------|C#|-----------------4-4-4-4-4-4-4-45--------------------------------|G#|-5-5-5-5-5-5-5-57----------------7-7-7-7-7-7-7-79----------------|C#|-------------------------------------------------2-2-2-252-2-2---| 1 + 2 + 3 + 4 + 1 + 2 + 3 + 4 + 1 + 2 + 3 + 4 + 1 + 2 + 3 + 4 +2:51 ChorusF#|-----------------------------------------------------------------|C#|-----------------------------------------------------------------|G#|-----------------0-0-0-0-------------------------0-0-0-0---------|C#|-0-0-0-0-0-0-0-0---------2-2-2-2-0-0-0-0-0-0-0-0---------2-2-2-2-| 1 + 2 + 3 + 4 + 1 + 2 + 3 + 4 + 1 + 2 + 3 + 4 + 1 + 2 + 3 + 4 +F#|-----------------------------------------------------------------|C#|-----------------------------------------------------------------|G#|-----------------0-0-0-0---------5-5-5-5-5-5-5-\-----------------|C#|-0-0-0-0-0-0-0-0---------2-2-2-2-----------------4-4-4-4-2-2-2-2-| 1 + 2 + 3 + 4 + 1 + 2 + 3 + 4 + 1 + 2 + 3 + 4 + 1 + 2 + 3 + 4 +F#|-----------------------------------------------------------------|C#|-----------------------------------------------------------------|G#|-----------------0-0-0-0---------5-5-5-5-5-5-5-5-0-0-0-0---------|C#|-0-0-0-0-0-0-0-0---------2-2-2-2-------------------------2-2-2-2-| 1 + 2 + 3 + 4 + 1 + 2 + 3 + 4 + 1 + 2 + 3 + 4 + 1 + 2 + 3 + 4 +F#|-----------------------------------------------------------------|C#|-----------------------------------------------------------------|G#|-----------------0-0-0-0---------5-5-5-5-5-5-5-\-----------------|C#|-0-0-0-0-0-0-0-0---------2-2-2-2-----------------4-4-4-4-2-2-2-2-| 1 + 2 + 3 + 4 + 1 + 2 + 3 + 4 + 1 + 2 + 3 + 4 + 1 + 2 + 3 + 4 +3:38 BridgeF#|-----------------------------------------------------------------|C#|----------------------------------------------------------7-7----|G#|-0-0-0-0-0-0-9-7-4-4-4-4-4-4-7-7-5-5-5-5-5-5-9-9-0-0-0-079-9-975-|C#|-----------------------------------------------------------------| 1 + 2 + 3 + 4 + 1 + 2 + 3 + 4 + 1 + 2 + 3 + 4 + 1 + 2 + 3 + 4 +F#|-----------------------------------------------------------------|C#|-----------------------------------------------------------------|G#|-0-0-0-0-0-0-9-7-4-4-4-4-4-4-457-5-5-5-5-5-5-9-9-7-7-7-7-7-7-7-\-|C#|-----------------------------------------------------------------| 1 + 2 + 3 + 4 + 1 + 2 + 3 + 4 + 1 + 2 + 3 + 4 + 1 + 2 + 3 + 4 +F#|-----------------------------------------------------------------|C#|-------------------------------------0---0---4---4---4-----------

0 reply
Motormouth1991 20 Aug 08, 2014 04:33 PM

1:23 Pre-Chorus
F#|-----------------------------------------------------------------|
C#|---------------4-------------------------------------------------|
G#|-5-5-5-5-5-5-5---------------------------------------------------|
C#|-----------------4-4-4-4-4-4-4-4-2-2-2-2-2-2-2-2-2-2-2-2-2-2-2---|
1 + 2 + 3 + 4 + 1 + 2 + 3 + 4 + 1 + 2 + 3 + 4 + 1 + 2 + 3 + 4 +

1:35 Chorus
F#|-----------------------------------------------------------------|
C#|-----------------------------------------------------------------|
G#|-----------------0-0-0-0-------------------------0-0-0-0---------|
C#|-0-0-0-0-0-0-0-0---------2-2-2-2-0-0-0-0-0-0-0-0---------2-2-2-2-|
1 + 2 + 3 + 4 + 1 + 2 + 3 + 4 + 1 + 2 + 3 + 4 + 1 + 2 + 3 + 4 +

F#|-----------------------------------------------------------------|
C#|-----------------------------------------------------------------|
G#|-----------------0-0-0-0-----------------------------------------|
C#|-0-0-0-0-0-0-0-0---------2-2-2-2-0-0-0-0-0-0-0-0-4-------2-------|
1 + 2 + 3 + 4 + 1 + 2 + 3 + 4 + 1 + 2 + 3 + 4 + 1 + 2 + 3 + 4 +

F#|-------------------------------------------------|
C#|---------------------7---------------------------|
G#|-0---------------7h9-------------9-7-\-\---------|
C#|-------------------------------------------------|
1 + 2 + 3 + 4 + 1 + 2 + 3 + 4 + 1 + 2 + 3 + 4 +

2:04 Verse
F#|-----------------------------------------------------------------|
C#|-----------------------------------------------------------------|
G#|-0-0-0-0-0-0-0-0-4-4-4-4-4-4-4-4-5-5-5-5-5-5-5-5-0-0-0-0-0-0-9-7-|
C#|-----------------------------------------------------------------|
1 + 2 + 3 + 4 + 1 + 2 + 3 + 4 + 1 + 2 + 3 + 4 + 1 + 2 + 3 + 4 +

F#|------------------------------------------------------------------|
C#|------------------------------------------------------------------|
G#|-0-0-0-0-0-0-9-7-4-4-4-4-4-4-7-7-5-5-5-5-5-5-5-5-0-0-0-0-0-0-467--|
C#|------------------------------------------------------------------|
1 + 2 + 3 + 4 + 1 + 2 + 3 + 4 + 1 + 2 + 3 + 4 + 1 + 2 + 3 + 4 +

2:28 Pre-Chorus
F#|-----------------------------------------------------------------|
C#|-----------------4-4-4-4-4-4-4-45--------------------------------|
G#|-5-5-5-5-5-5-5-57----------------7-7-7-7-7-7-7-797-7-7-7-7-7-7-7-|
C#|-----------------------------------------------------------------|
1 + 2 + 3 + 4 + 1 + 2 + 3 + 4 + 1 + 2 + 3 + 4 + 1 + 2 + 3 + 4 +

F#|-----------------------------------------------------------------|
C#|-----------------4-4-4-4-4-4-4-45--------------------------------|
G#|-5-5-5-5-5-5-5-57----------------7-7-7-7-7-7-7-79----------------|
C#|-------------------------------------------------2-2-2-252-2-2---|
1 + 2 + 3 + 4 + 1 + 2 + 3 + 4 + 1 + 2 + 3 + 4 + 1 + 2 + 3 + 4 +

2:51 Chorus
F#|-----------------------------------------------------------------|
C#|-----------------------------------------------------------------|
G#|-----------------0-0-0-0-------------------------0-0-0-0---------|
C#|-0-0-0-0-0-0-0-0---------2-2-2-2-0-0-0-0-0-0-0-0---------2-2-2-2-|
1 + 2 + 3 + 4 + 1 + 2 + 3 + 4 + 1 + 2 + 3 + 4 + 1 + 2 + 3 + 4 +

F#|-----------------------------------------------------------------|
C#|-----------------------------------------------------------------|
G#|-----------------0-0-0-0---------5-5-5-5-5-5-5-\-----------------|
C#|-0-0-0-0-0-0-0-0---------2-2-2-2-----------------4-4-4-4-2-2-2-2-|
1 + 2 + 3 + 4 + 1 + 2 + 3 + 4 + 1 + 2 + 3 + 4 + 1 + 2 + 3 + 4 +

F#|-----------------------------------------------------------------|
C#|-----------------------------------------------------------------|
G#|-----------------0-0-0-0---------5-5-5-5-5-5-5-5-0-0-0-0---------|
C#|-0-0-0-0-0-0-0-0---------2-2-2-2-------------------------2-2-2-2-|
1 + 2 + 3 + 4 + 1 + 2 + 3 + 4 + 1 + 2 + 3 + 4 + 1 + 2 + 3 + 4 +

F#|-----------------------------------------------------------------|
C#|-----------------------------------------------------------------|
G#|-----------------0-0-0-0---------5-5-5-5-5-5-5-\-----------------|
C#|-0-0-0-0-0-0-0-0---------2-2-2-2-----------------4-4-4-4-2-2-2-2-|
1 + 2 + 3 + 4 + 1 + 2 + 3 + 4 + 1 + 2 + 3 + 4 + 1 + 2 + 3 + 4 +

3:38 Bridge
F#|-----------------------------------------------------------------|
C#|----------------------------------------------------------7-7----|
G#|-0-0-0-0-0-0-9-7-4-4-4-4-4-4-7-7-5-5-5-5-5-5-9-9-0-0-0-079-9-975-|
C#|-----------------------------------------------------------------|
1 + 2 + 3 + 4 + 1 + 2 + 3 + 4 + 1 + 2 + 3 + 4 + 1 + 2 + 3 + 4 +

F#|-----------------------------------------------------------------|
C#|-----------------------------------------------------------------|
G#|-0-0-0-0-0-0-9-7-4-4-4-4-4-4-457-5-5-5-5-5-5-9-9-7-7-7-7-7-7-7-\-|
C#|-----------------------------------------------------------------|
1 + 2 + 3 + 4 + 1 + 2 + 3 + 4 + 1 + 2 + 3 + 4 + 1 + 2 + 3 + 4 +

F#|-----------------------------------------------------------------|
C#|-------------------------------------0---0---4---4---4-----------

guest
You may want to rate the tab now too:
select rating
Wanna post a correction for this tab? Suggest correction