Oops, an error
Loading. Please wait.

Enchanted Tab

version 1
version 1

Whole song

Interactive

Video

19,407 views 9 this week
1 commentread comment
1 2 3 4 5
accurate
x 3
add to favorites
launch autoscroll
font size
0
reset
how to read this tab
guitar tuner
Autoscroll
slow
fast
+/-
esc
set tempo
stop
Help us to improve Ultimate-Guitar.com Take our survey!
×
Author
Difficulty
novice
READ: I have tabbed most of the lead guitar however I cannot quite get the last part of 
the chorus. The parts not tabbed, you'll play power chords if you please.


CHORUS:
Play this each line.
[This night is sparkling, don't you let it go]
[I'm wonderstruck dancing round all alone]
[I'll spend forever wonderin' if you knew]
Guitar 1:
e|-------------------------------------------------------------------|
B|-12------12------12----12-10---------------------------------------|
G|-----12------12--------------11---9--------------------------------|
D|---12--12--12--12--12-----------12---------------------------------|
A|-------------------------------------------------------------------|
E|-------------------------------------------------------------------|
However I don't know what comes after "knew" or what to play during "I was enchanted to 
meet you.", please please please comment if you have an idea. Don't email, I don't check.


Guitar 2 [Optional]:
Play this for each line.
e|-------------------------------------------------------------------|
B|--10---10---15---15---14---14---12---12----------------------------|
G|-------------------------------------------------------------------|
D|-------------------------------------------------------------------|
A|-------------------------------------------------------------------|
E|-------------------------------------------------------------------|

Solo!
e|-------------------------------------------------------------------|
B|-------------------------------------------------------------------|
G|-3/-5-5-5-5-5-5-5-5/-8-8-8-8-8\-5/-10-10-10-10\-8\-5-5-5\----------|
D|-------------------------------------------------------------------|
A|-------------------------------------------------------------------|
E|-------------------------------------------------------------------|

e|-------------------------------------------------------------------|
B|-11-13\-9-11\-8-------------8-9/-13-11-----------------------------|
G|----------------------8-10-----------------------------------------|
D|----------------10-11----------------------------------------------|
A|-------------------------------------------------------------------|
E|-------------------------------------------------------------------|

/ slide up
\ slide down
Suggest correction
What's this?
You can suggest a correction to this tab. Community and Mods will review your correction and vote to approve or reject it.
comments
We did not receive enough feedback on this tab! Please rate:
print report bad tab
1 2 3 4 5
1 comment total.
+1 reply
crimson1420 62 wrote on April 24 2011, 02:42 pm

Or this might sound better...
e|-----------------------------------------------------|
B|-----12-------12------12---12--10--------------------|
G|-12------12-------12-------------11----9-------------|
D|---12--12---12--12--12---12---------12---------------|
A|-----------------------------------------------------|
E|-----------------------------------------------------|

guest
You may want to rate the tab now too:
select rating
Please do not post tabs as comments. Select "correction" instead!