Oops, an error
Loading. Please wait.

Eyes Open Bass Tab

version 1
version 1

Whole song

653 views 3 this week
no commentswrite comment
1 2 3 4 5
please rate
add to favorites
launch autoscroll
font size
0
reset
guitar tuner
Tab Pro tools
  • play this tab
  • loop segment
  • change instrument
  • show fretboard
  • metronome
×
Best way to learn
"Eyes Open"
Autoscroll
slow
fast
+/-
esc
set tempo
stop
Contributor
Difficulty
novice
-----------------------------------------------------------------------------
                            Eyes Open - Taylor Swift
-----------------------------------------------------------------------------

Tabbed by: Country Bass
E-mail: aaron.white8@education.nsw.gov.au

Great song, from the Hunger Games Soundtrack, and a great song for any rock bands who 
want to play a bit of country


Tuning: Standard

Intro:

Bass comes in at 0:24

G|--------------------------------------------------------------------|
D|--------------------------------------------------------------------|
A|------------------5--5-5---5--5-5--6--6-6---6--6-6-3--3-3---3--3-3--|
E|--3--3-3---3--3-3---------------------------------------------------|

Verse 1

G|---------------------------------------------------------------------------|
D|---------------------------------------------------------------------------|
A|--------------------5--5-5-5---5--5-5--6--6-6-6---6--6-6-3--3-3-3---3--3-3-|
E|--3--3-3-3---3--3-3--------------------------------------------------------|

G|------------------------------------------------|
D|------------------------------------------------|
A|-------------------------5-5-5-5-5-5---5--5-5-5-|
E|--3-3-3-3-3-3---3--3-3-3------------------------|

G|-----------------------------------------------------|
D|-----------------------------------------------------|
A|--6-6-6-6-6-6---6--6-6-6-3-3-3-3-3-3---3--3-3-3-5----|
E|-----------------------------------------------------|

Chorus

G|--------------------------------------------------------------------------|
D|--------------------------------------------------------------------------|
A|-------------------5--5-5-5---5--5-5--6--6-6-6---6--6-6-3--3-3-3---3--3-3-|
E|-3--3-3-3---3--3-3--------------------------------------------------------|

G|------------------------------------------------------------------------------|
D|------------------------------------------------------------------------------|
A|-------------------5--5-5-5---5--5-5--6--6-6-6---6--6-6-3--3-3-3---3--3-3-5---|
E|-3--3-3-3---3--3-3------------------------------------------------------------|

Post-Chorus

G|---------------|
D|---------------|
A|---------------|
E|--3--3-3---3-3-|

Bridge

G|------------------------------------------|
D|------------------------------------------|
A|--5----6----3----5----6----3---------5----|
E|--------------------------------3---------|


Playing Order

Intro
Verse
Chorus
Post-Chorus
Verse
Chorus
Bridge
Intro
Chorus


Have Fun


| /  slide up
| \  slide down
| h  hammer-on
| p  pull-off
| ~  vibrato
| +  harmonic
| x  Mute note
=============================================================================
comments
We did not receive enough feedback on this tab! Please rate:
print report bad tab
1 2 3 4 5
I want to post or [tab]
guest
You may want to rate the tab now too:
select rating
Please do not post tabs as comments. Select "correction" instead!