Oops, an error
Loading. Please wait.

Fearless Tab

version 1
version 1

Intro

Solo

Whole song

Interactive

Video

52,557 views 15 this week
1 commentread comment
1 2 3 4 5
accurate
x 7
add to favorites
launch autoscroll
font size
0
reset
how to read this tab
guitar tuner
Tab Pro tools
  • play this tab
  • loop segment
  • change instrument
  • show fretboard
  • metronome
Autoscroll
slow
fast
+/-
esc
set tempo
stop
Contributor
This is my first tab so be nice please!

Artist: Taylor Swift
Song: Fearless
Tuning: Capo 3


e|---------2------------2-3-2------------2--5-3-2--------------|
B|-3-5-3-3------3-5-3-5----------3-5-3-5--3--------5-3---------|
G|-------------------------------------------------------------|
D|-------------------------------------------------------------|
A|-------------------------------------------------------------|
E|-------------------------------------------------------------|

e|---------2------------2-3-2------------2--6-4-2--------------|
B|-3-5-3-5------3-5-3-5----------3-5-3-5----------5-3----------|
G|-------------------------------------------------------------|
D|-------------------------------------------------------------|
A|-------------------------------------------------------------|
E|-------------------------------------------------------------|
comments
print report bad tab
1 comment total.
0 reply
Eclectic09 wrote on October 17 2010, 04:13 pm

Pretty good but i think it sounds better if you do..

 
e|---------2------------2-3-2------------2--5-3-2--------------|
B|-3-5-3-3------3-5-3-5----------3-5-3-5--3-------3-5-3---------|
G|-------------------------------------------------------------|
D|-------------------------------------------------------------|
A|-------------------------------------------------------------|
E|-------------------------------------------------------------|

I want to post or [tab]
guest
You may want to rate the tab now too:
select rating
Please do not post tabs as comments. Select "correction" instead!