Oops, an error
Loading. Please wait.

Fearless Tab

version 2
version 2

Intro

Whole song

Interactive

64,586 views 21 this week
12 commentsread comments
1 2 3 4 5
excellent!
x 27
add to favorites
launch autoscroll
font size
0
reset
how to read this tab
guitar tuner
Tab Pro tools
  • play this tab
  • loop segment
  • change instrument
  • show fretboard
  • metronome
×
Best way to learn
"Fearless"
Autoscroll
slow
fast
+/-
esc
set tempo
stop
Contributor
Capo
3rd fret
No one had the beginning tune to this song, so I decided to try to figure it out. 

First tab, so be nice =P

Capo 3

e----0---0---2--------0---0-2-3-2-------0---0--2-5-3-2-0-----------|
B--3---3------------3---3-------------3---3------------------------|
G------------------------------------------------------------------|
D------------------------------------------------------------------|
A------------------------------------------------------------------|
E------------------------------------------------------------------|
                                                ^ ^ ^ ^

e----0---0---2--------0---0-2-3-2-------0---0--2-5-3-5-3-----------|
B--3---3------------3---3-------------3---3------------------------|
G------------------------------------------------------------------|
D------------------------------------------------------------------|
A------------------------------------------------------------------|
E------------------------------------------------------------------|
                                                ^ ^ ^ ^
I cannot tell if there is other notes being played where the '^' are or if
I'm hearing things (they sound like they should be on the B string)...

Either way, hope this helps and tell me if somethings wrong and I will try
harder to fix it, or better yet tell me what it needs to be replaced with =P
comments
print report bad tab
12 comments total. Showing first comments.
+6 reply
renee-xo wrote on January 26 2009, 12:38 am

Capo 3

e----0---0---2--------0---0-2-3-2-------0---0--2-5-3-2-0-----------|
B--3---3------------3---3-------------3---3-----3-3-3-3------------|
G------------------------------------------------------------------|
D------------------------------------------------------------------|
A------------------------------------------------------------------|
E------------------------------------------------------------------|


e----0---0---2--------0---0-2-3-2-------0---0--2-5-3-5-3-----------|
B--3---3------------3---3-------------3---3-----3-3-3-3------------|
G------------------------------------------------------------------|
D------------------------------------------------------------------|
A------------------------------------------------------------------|
E------------------------------------------------------------------|

I found the notes. :)

0 reply
ccryder_11 wrote on February 4 2009, 07:12 pm

there is also two guitars in the intro.
the second guitar - however - is just playing chords. no finger picking so... yeah. =]

just lettin' ya know =]

0 reply
tobiasvolo wrote on February 6 2009, 08:58 pm

Thanks to the both of ya! =)

I want to post or [tab]
guest
You may want to rate the tab now too:
select rating
Please do not post tabs as comments. Select "correction" instead!