Oops, an error
Loading. Please wait.

Fearless Tab

version 3
version 3

Whole song

Interactive

Video

11,044 views 6 this week
1 commentread comment
1 2 3 4 5
excellent!
x 7
add to favorites
launch autoscroll
font size
0
reset
how to read this tab
guitar tuner
Autoscroll
slow
fast
+/-
esc
set tempo
stop
Help us to improve Ultimate-Guitar.com Take our survey!
×
Author
Difficulty
Capo
intermediate
3rd fret
        CAPO 3 
TAYLOR SWIFT - FEARLESS

During the song, you can play A or A2, both sound nice, I prefer A2 for the open feel it gives.


INTRO:
e|----0---0--2----|----0---0---3-2-|----0---0--2---5|--3--2----------|
B|--3---3---------|--3---3---3-----|--3---3------3--|--------5-3-----| 
G|----------------|----------------|----------------|----------------| 
D|----------------|----------------|----------------|----------------| 
A|----------------|----------------|----------------|----------------| 
E|----------------|----------------|----------------|----------------| 
  1-&-2-&-3-&-4-&- 1-&-2-&-3-&-4-&- 1-&-2-&-3-&-4-&- 1-&-2-&-3-&-4-&-  


e|----0---0--2----|----0---0---3-2-|----0---0--2---5|--3--2--3-2-----|
B|--3---3---------|--3---3---3-----|--3---3------3--|----------------| 
G|----------------|----------------|----------------|----------------| 
D|----------------|----------------|----------------|----------------| 
A|----------------|----------------|----------------|----------------| 
E|----------------|----------------|----------------|----------------| 
  1-&-2-&-3-&-4-&- 1-&-2-&-3-&-4-&- 1-&-2-&-3-&-4-&- 1-&-2-&-3-&-4-&-  


VERSE 1:
D
There's something 'bout the way,
A                               Em
The street looks when it's just rained.
                       G
There's a glow off the pavement.
                   D
You walk me to the car,
                     A                      Em
And you know I wanna ask you to dance right there,
                     G
In the middle of the parking lot.
     
Yeah                                Oh Yeah
e|----0---0--2----|----0---0---3-2-|----0---0--2---5|--3--2----------|
B|--3---3---------|--3---3---3-----|--3---3------3--|--------5-3-----| 
G|----------------|----------------|----------------|----------------| 
D|----------------|----------------|----------------|----------------| 
A|----------------|----------------|----------------|----------------| 
E|----------------|----------------|----------------|----------------| 
  1-&-2-&-3-&-4-&- 1-&-2-&-3-&-4-&- 1-&-2-&-3-&-4-&- 1-&-2-&-3-&-4-&-  

VERSE 2:
D
We're driving down the road.
A               Em
I wonder if you know,
                   G
I'm trying so hard not to get caught up now.
D
But you're just so cool,
A                           Em
Run your hands through your hair.
                G         A
Absent-mindedly making me want you.

CHORUS:
D                       A
'Cause I don't know how it gets better than this,
Em                           G           A
You take my hand and drag me head first, fearless.
D                    A
And I don't know why but with you I'd dance,
Em               G           A
In a storm in my best dress, fearless.


e|----0---0--2----|----0---0---3-2-|----0---0--2---5|--3--2--3-2-----|
B|--3---3---------|--3---3---3-----|--3---3------3--|----------------| 
G|----------------|----------------|----------------|----------------| 
D|----------------|----------------|----------------|----------------| 
A|----------------|----------------|----------------|----------------| 
E|----------------|----------------|----------------|----------------| 
  1-&-2-&-3-&-4-&- 1-&-2-&-3-&-4-&- 1-&-2-&-3-&-4-&- 1-&-2-&-3-&-4-&-  

VERSE 3:
D                  A
So baby drive slow till we run out of road,
Em
In this one horse town.
G                      D
I wanna stay right here in this passenger seat.
A
You put your eyes on me,
Em                 G           A
In this moment now capture it, remember it.

CHORUS:
D                       A
'Cause I don't know how it gets better than this,
Em                           G           A
You take my hand and drag me head first, fearless.
D                    A
And I don't know why but with you I'd dance,
Em               G           A
In a storm in my best dress, fearless.

BRIDGE:
Cadd9                     D
Yeah you stood there with me in the doorway,
         Em             Em7     G    A
my hands shake, I'm not usually this way.
Cadd9                        D
But you pull me in and I'm a little more brave.
       Em               Em7                     G       A
It's a first kiss, it's flawless, it's really something,
             
It's fearless.

                                  Oh...   Yeah
e|----0---0--2----|----0---0---3-2-|----0---0--2---5|--3--2----------|
B|--3---3---------|--3---3---3-----|--3---3------3--|--------5-3-----| 
G|----------------|----------------|----------------|----------------| 
D|----------------|----------------|----------------|----------------| 
A|----------------|----------------|----------------|----------------| 
E|----------------|----------------|----------------|----------------| 
  1-&-2-&-3-&-4-&- 1-&-2-&-3-&-4-&- 1-&-2-&-3-&-4-&- 1-&-2-&-3-&-4-&-  

CHORUS:
D                       A
'Cause I don't know how it gets better than this,
Em                           G           A
You take my hand and drag me head first, fearless.
D                    A
And I don't know why but with you I'd dance,
Em               G           A
In a storm in my best dress, fearless.

e|----0---0--2----|----0---0---3-2-|----0---0--2---5|--3--2----------|
B|--3---3---------|--3---3---3-----|--3---3------3--|--------5-3-----| 
G|----------------|----------------|----------------|----------------| 
D|----------------|----------------|----------------|----------------| 
A|----------------|----------------|----------------|----------------| 
E|----------------|----------------|----------------|----------------| 
  1-&-2-&-3-&-4-&- 1-&-2-&-3-&-4-&- 1-&-2-&-3-&-4-&- 1-&-2-&-3-&-4-&-  


e|----0---0--2----|----0---0---3-2-|----0---0--2---5|--3--2--3-2-----|
B|--3---3---------|--3---3---3-----|--3---3------3--|----------------| 
G|----------------|----------------|----------------|----------------| 
D|----------------|----------------|----------------|----------------| 
A|----------------|----------------|----------------|----------------| 
E|----------------|----------------|----------------|----------------| 
  1-&-2-&-3-&-4-&- 1-&-2-&-3-&-4-&- 1-&-2-&-3-&-4-&- 1-&-2-&-3-&-4-&-  


Alright the numbers below the Tab are just 4 beats 
in time with the song to help get the timing for the tabs.

-N      
Suggest correction
What's this?
You can suggest a correction to this tab. Community and Mods will review your correction and vote to approve or reject it.
comments
print report bad tab
1 comment total.
0 reply
NaHu-gamer 70 wrote on July 8 2010, 08:13 pm

Alright during the second measure of Tab, it says 5 3 2 32. This should be 5 3 5 3

guest
You may want to rate the tab now too:
select rating
Please do not post tabs as comments. Select "correction" instead!