Oops, an error
Loading. Please wait.

Fifteen tab

version 1
version 1

Whole song

Interactive

Video

74,752 views 33 this week
2 commentsread comments
1 2 3 4 5
x 10
add to favorites
×
Save as Personal and add changes to this tab that will be seen only by you. Learn more ›
×
You can save this tab as Personal to edit and correct it or add notes. All changes will be seen only by you. Learn more »
launch autoscroll
font size
0
reset
how to read this tab
guitar tuner
edit
Autoscroll
slow
fast
+/-
esc
set tempo
stop
A beautiful song by a beautiful singer, this tab is 100% correct and should be quite easy.
 
G                    Cadd9                Em7                  Cadd9
e|--3-3-3-3-3-3-3-3-3-3--3-3-3-3-3-3-3-3-3-3--3-3-3-3-3-3-3-3-3-3--3-3-3-3-3-3-3-3-3-3--|
B|--3-3-3-3-3-3-3-3-3-3--3-3-3-3-3-3-3-3-3-3--3-3-3-3-3-3-3-3-3-3--3-3-3-3-3-3-3-3-3-3--|
G|--0-0-0-0-0-0-0-0-0-0--0-0-0-0-0-0-0-0-0-0--0-0-0-0-0-0-0-0-0-0--0-0-0-0-0-0-0-0-0-0--|
D|--0-0-0-0-0-0-0-0-0-0--2-2-2-2-2-2-2-2-2-2--2-2-2-2-2-2-2-2-2-2--2-2-2-2-2-2-2-2-2-2--|
A|--2-2-2-2-2-2-2-2-2-2--3-3-3-3-3-3-3-3-3-3--2-2-2-2-2-2-2-2-2-2--3-3-3-3-3-3-3-3-3-3--|
E|--3-3-3-3-3-3-3-3-3-3-----------------------------------------------------------------|


    G                    Cadd9                Em7                  Cadd9
e|--3-3-3-3-3-3-3-3-3-3--3-3-3-3-3-3-3-3-3-3--3-3-3-3-3-3-3-3-3-3--3-3-3-3-3-3-3-3-3-3--|
B|--3-3-3-3-3-3-3-3-3-3--3-3-3-3-3-3-3-3-3-3--3-3-3-3-3-3-3-3-3-3--3-3-3-3-3-3-3-3-3-3--|
G|--0-0-0-0-0-0-0-0-0-0--0-0-0-0-0-0-0-0-0-0--0-0-0-0-0-0-0-0-0-0--0-0-0-0-0-0-0-0-0-0--|
D|--0-0-0-0-0-0-0-0-0-0--2-2-2-2-2-2-2-2-2-2--2-2-2-2-2-2-2-2-2-2--2-2-2-2-2-2-2-2-2-2--|
A|--2-2-2-2-2-2-2-2-2-2--3-3-3-3-3-3-3-3-3-3--2-2-2-2-2-2-2-2-2-2--3-3-3-3-3-3-3-3-3-3--|
E|--3-3-3-3-3-3-3-3-3-3-----------------------------------------------------------------|
You take a deep breath and you walk through the doors...


    G                    Cadd9                Em7                  Cadd9
e|--3-3-3-3-3-3-3-3-3-3--3-3-3-3-3-3-3-3-3-3--3-3-3-3-3-3-3-3-3-3--3-3-3-3-3-3-3-3-3-3--|
B|--3-3-3-3-3-3-3-3-3-3--3-3-3-3-3-3-3-3-3-3--3-3-3-3-3-3-3-3-3-3--3-3-3-3-3-3-3-3-3-3--|
G|--0-0-0-0-0-0-0-0-0-0--0-0-0-0-0-0-0-0-0-0--0-0-0-0-0-0-0-0-0-0--0-0-0-0-0-0-0-0-0-0--|
D|--0-0-0-0-0-0-0-0-0-0--2-2-2-2-2-2-2-2-2-2--2-2-2-2-2-2-2-2-2-2--2-2-2-2-2-2-2-2-2-2--|
A|--2-2-2-2-2-2-2-2-2-2--3-3-3-3-3-3-3-3-3-3--2-2-2-2-2-2-2-2-2-2--3-3-3-3-3-3-3-3-3-3--|
E|--3-3-3-3-3-3-3-3-3-3-----------------------------------------------------------------|
You say hi to your friends...


    G                    Cadd9                Em7                  Cadd9
e|--3-3-3-3-3-3-3-3-3-3--3-3-3-3-3-3-3-3-3-3--3-3-3-3-3-3-3-3-3-3--3-3-3-3-3-3-3-3-3-3--|
B|--3-3-3-3-3-3-3-3-3-3--3-3-3-3-3-3-3-3-3-3--3-3-3-3-3-3-3-3-3-3--3-3-3-3-3-3-3-3-3-3--|
G|--0-0-0-0-0-0-0-0-0-0--0-0-0-0-0-0-0-0-0-0--0-0-0-0-0-0-0-0-0-0--0-0-0-0-0-0-0-0-0-0--|
D|--0-0-0-0-0-0-0-0-0-0--2-2-2-2-2-2-2-2-2-2--2-2-2-2-2-2-2-2-2-2--2-2-2-2-2-2-2-2-2-2--|
A|--2-2-2-2-2-2-2-2-2-2--3-3-3-3-3-3-3-3-3-3--2-2-2-2-2-2-2-2-2-2--3-3-3-3-3-3-3-3-3-3--|
E|--3-3-3-3-3-3-3-3-3-3-----------------------------------------------------------------|
It's your freshman year and your gonn' be here...


    G                    Cadd9                Em7                  Cadd9
e|--3-3-3-3-3-3-3-3-3-3--3-3-3-3-3-3-3-3-3-3--3-3-3-3-3-3-3-3-3-3--3-3-3-3-3-3-3-3-3-3--|
B|--3-3-3-3-3-3-3-3-3-3--3-3-3-3-3-3-3-3-3-3--3-3-3-3-3-3-3-3-3-3--3-3-3-3-3-3-3-3-3-3--|
G|--0-0-0-0-0-0-0-0-0-0--0-0-0-0-0-0-0-0-0-0--0-0-0-0-0-0-0-0-0-0--0-0-0-0-0-0-0-0-0-0--|
D|--0-0-0-0-0-0-0-0-0-0--2-2-2-2-2-2-2-2-2-2--2-2-2-2-2-2-2-2-2-2--2-2-2-2-2-2-2-2-2-2--|
A|--2-2-2-2-2-2-2-2-2-2--3-3-3-3-3-3-3-3-3-3--2-2-2-2-2-2-2-2-2-2--3-3-3-3-3-3-3-3-3-3--|
E|--3-3-3-3-3-3-3-3-3-3-----------------------------------------------------------------|
Hopin' one of those senior boys will wink at you...


    G                Em7              D                Cadd9            
e|--3-3-3-3-3-3-3-3--3-3-3-3-3-3-3-3--2-2-2-2-2-2-2-2--3-3-3-3-3-3-3-3--|
B|--3-3-3-3-3-3-3-3--3-3-3-3-3-3-3-3--3-3-3-3-3-3-3-3--3-3-3-3-3-3-3-3--|
G|--0-0-0-0-0-0-0-0--0-0-0-0-0-0-0-0--2-2-2-2-2-2-2-2--0-0-0-0-0-0-0-0--|
D|--0-0-0-0-0-0-0-0--2-2-2-2-2-2-2-2--0-0-0-0-0-0-0-0--2-2-2-2-2-2-2-2--|
A|--2-2-2-2-2-2-2-2--2-2-2-2-2-2-2-2-------------------3-3-3-3-3-3-3-3--|
E|--3-3-3-3-3-3-3-3-----------------------------------------------------|
cause when your fifteen, somebody tells you they love you...

   G                 D                Em7              Cadd9            
e|--3-3-3-3-3-3-3-3--2-2-2-2-2-2-2-2--3-3-3-3-3-3-3-3--3-3-3-3-3-3-3-3--|
B|--3-3-3-3-3-3-3-3--3-3-3-3-3-3-3-3--3-3-3-3-3-3-3-3--3-3-3-3-3-3-3-3--|
G|--0-0-0-0-0-0-0-0--2-2-2-2-2-2-2-2--0-0-0-0-0-0-0-0--0-0-0-0-0-0-0-0--|
D|--0-0-0-0-0-0-0-0--0-0-0-0-0-0-0-0--2-2-2-2-2-2-2-2--2-2-2-2-2-2-2-2--|
A|--2-2-2-2-2-2-2-2-------------------2-2-2-2-2-2-2-2--3-3-3-3-3-3-3-3--|
E|--3-3-3-3-3-3-3-3-----------------------------------------------------|
and when your fifteen feeling like there's nothing to figure out
   
    Em7              D                G       Em7     Cadd9            D
e|--3-3-3-3-3-3-3-3--2-2-2-2-2-2-2-2--3-3-3-3-3-3-3-3-3-3-3-3-3-3-3-3--2---------------|
B|--3-3-3-3-3-3-3-3--3-3-3-3-3-3-3-3--3-3-3-3-3-3-3-3-3-3-3-3-3-3-3-3--3---------------|
G|--0-0-0-0-0-0-0-0--2-2-2-2-2-2-2-2--0-0-0-0-0-0-0-0-0-0-0-0-0-0-0-0--2---------------|
D|--2-2-2-2-2-2-2-2--0-0-0-0-0-0-0-0--0-0-0-0-2-2-2-2-2-2-2-2-2-2-2-2--0---------------|
A|--2-2-2-2-2-2-2-2-------------------2-2-2-2-2-2-2-2-3-3-3-3-3-3-3-3------------------|
E|------------------------------------3-3-3-3------------------------------------------|
Count to ten, take it in, this is life...                                ...fifteen

Repeat the Verse and Chorus:

Solo:

e|-----------------------|
B|-----------------------|
G|--11-12/16----11-12/19-|
D|-----------------------|
A|-----------------------|
E|-----------------------|



Rhythm Guitar under Solo:

   G                Em7              G                Cadd9    D        
e|--3-3-3-3-3-3-3-3--3-3-3-3-3-3-3-3--3-3-3-3-3-3-3-3--3-3-3-3--2-2-2-2--|
B|--3-3-3-3-3-3-3-3--3-3-3-3-3-3-3-3--3-3-3-3-3-3-3-3--3-3-3-3--3-3-3-3--|
G|--0-0-0-0-0-0-0-0--0-0-0-0-0-0-0-0--0-0-0-0-0-0-0-0--0-0-0-0--2-2-2-2--|
D|--0-0-0-0-0-0-0-0--2-2-2-2-2-2-2-2--0-0-0-0-0-0-0-0--2-2-2-2--0-0-0-0--|
A|--2-2-2-2-2-2-2-2--2-2-2-2-2-2-2-2--2-2-2-2-2-2-2-2--3-3-3-3-----------|
E|--3-3-3-3-3-3-3-3-------------------3-3-3-3-3-3-3-3--------------------|

Bridge:

    Cadd9            Em7              D                G      D      Cadd9
e|--3---3---3---3----3---3---3---3----2---2---2---2----3------2------3------3------2----|
B|--3---3---3---3----3---3---3---3----3---3---3---3----3------3------3------3------3----|
G|--0---0---0---0----0---0---0---0----2---2---2---2----0------2------0------0------2----|
D|--2---2---2---2----2---2---2---2----0---0---0---0----0------0------2------2------0----|
A|--3---3---3---3----2---2---2---2---------------------2-------------3------2-----------|
E|-----------------------------------------------------3--------------------------------|
When all you wanted was to be wanted...

Repeat the Verse and Chorus:

Play the Verse riff through to the end, have fun!

            
            
Suggest correction
Creating personal tab
Creating personal tab
You can edit any tab online and save it as your Personal.

You can edit, replace or remove any tab part or add personal notes – all changes will be seen only by you.

Personal tabs can be accessed anytime from any device, even offline.
Learn more »
comments
print report bad tab
2 comments total.
+1 reply
melissarose 10 Dec 30, 2012 04:51 AM

Great tab!! I play the intro (and some other parts of the song) like this though:

e|--3-3-3-3-3-3---3-3-3-3-3-3---3-3-3-3-3-3---3-3-3-3-3-3
B|--3-3-3-3-3-3---3-3-3-3-3-3---3-3-3-3-3-3---3-3-3-3-3-3
G|--0-0-2-2-0-0---0-0-2-2-0-0---0-0-2-2-0-0---0-0-2-2-0-0
D|--0-0-0-0-0-0---2-2-0-0-0-0---2-2-0-0-0-0---2-2-0-0-0-0
A|--2-2-x-x-x-x---3-3-3-3-0-0---2-2-2-2-0-0---3-3-3-3-0-0
E|--3-3-3-3-3-3---x-x-x-x-x-x---x-x-x-x-x-x---x-x-x-x-x-x

I think I've tabbed that correctly... I was trying to play it like Taylor does here: http://www.youtube.com/watch?v=cKosW0b8J5M&list=FLMgk6I_N-RAVlpM5tHf4d1A&index=1

guest
You may want to rate the tab now too:
select rating
Wanna post a correction for this tab? Suggest correction