Oops, an error
Loading. Please wait.

I Dont Wanna Live Forever tab

version 2
version 2

Whole song

  • Fully structured tab with song timings, easy to follow.

Interactive

Video

  • High quality video, on screen guitar tab, easy to follow.
4,219 views 96 this week
2 commentsread comments
1 2 3 4 5
x 6
add to favorites
×
Save as Personal and add changes to this tab that will be seen only by you. Learn more ›
×
You can save this tab as Personal to edit and correct it or add notes. All changes will be seen only by you. Learn more »
launch autoscroll
font size
0
reset
how to read this tab
guitar tuner
edit
Autoscroll
slow
fast
+/-
esc
set tempo
stop
Author
Difficulty
[Intro]
e|-------------------|
B|-1-6-5-1---5-3-5-1-|
G|---------0---------|    (x4)
D|-------------------|
A|-------------------|
E|-------------------|
Oh-oh-oh-oh-oh-oh-oh-oh

[Verse 1 - ZAYN]
e|---------------------------------|
B|-3-3-3--3-3--3-3-3-1-3-3-3---1---|
G|---------------------------2---2-|    (x2)
D|---------------------------------|
A|---------------------------------|
E|---------------------------------|
Been sitting eyes wide open behind these four walls, hoping you'd call
It's just a cruel existence like there's no point hoping at all

[Pre-Chorus 1 - ZAYN]
e|-8-8-----8-8-----|---8-5-8-5---8-8---|-8-8-------8-8-------|---5-8-5-8-10-12-|
B|-----8-8-----8-8-|-8---------8-----8-|-----8-8-8-----8-8-8-|-8---------------|
G|-----------------|-------------------|---------------------|-----------------|
D|-----------------|-------------------|---------------------|-----------------|
A|-----------------|-------------------|---------------------|-----------------|
E|-----------------|-------------------|---------------------|-----------------|
Baby, baby, I feel crazy
Up all night, all night and every day
Give me something, oh, but you say nothing
What is happening to me?

[Chorus - ZAYN]
e|---5-8-10-12-8-8-----7-7-7-7-7-8-5-|-----5-8-10-12-8-8---|
B|-8---------------8-8---------------|-8-8---------------8-|
G|-----------------------------------|---------------------|
D|-----------------------------------|---------------------|
A|-----------------------------------|---------------------|
E|-----------------------------------|---------------------|
I don't wanna live forever, 'cause I know I'll be living in vain
And I don't wanna fit wherever

e|---7-7-7-7-7-8-7-5-----------|-------------------|
B|-8-----------------5-3-1-3---|-1-6-5-1---5-3-5-1-|
G|---------------------------2-|---------0---------|    (x2)
D|-----------------------------|-------------------|
A|-----------------------------|-------------------|
E|-----------------------------|-------------------|
I just wanna keep calling your name until you come back home
(Oh-oh-oh-oh-oh-oh)

e|---7-7-7-7-7-8-7-5-----------|
B|-8-----------------5-3-1-3---|
G|---------------------------2-|
D|-----------------------------|
A|-----------------------------|
E|-----------------------------|
I just wanna keep calling your name until you come back home

[Verse 2 - Taylor Swift]
e|---------------------------------|-------------------------------------------|
B|-3-3-3--3-3--3-3-3-1-3-3-3---1---|-3-3-3--3-3--3-3-3-3-3-3-1-1-1-6-5-6-5-3-1-|
G|---------------------------2---2-|-------------------------------------------|
D|---------------------------------|-------------------------------------------|
A|---------------------------------|-------------------------------------------|
E|---------------------------------|-------------------------------------------|
I'm sitting eyes wide open and I got one thing stuck in my mind
Wondering if I dodged a bullet or just lost the love of my life

[Pre-Chorus 2 - Taylor Swift]
e|-8-8-----8-8-----|---8-5-8-5---8-8---|-8-8-------8-8-------|---5-8-5-8-10-12-|
B|-----8-8-----8-8-|-8---------8-----8-|-----8-8-8-----8-8-8-|-8---------------|
G|-----------------|-------------------|---------------------|-----------------|
D|-----------------|-------------------|---------------------|-----------------|
A|-----------------|-------------------|---------------------|-----------------|
E|-----------------|-------------------|---------------------|-----------------|
Baby, baby, I feel crazy
Up all night, all night and every day
I gave you something, but you gave me nothing
What is happening to me?

[Chorus - ZAYN]
e|---5-8-10-12-8-8-----7-7-7-7-7-8-5-|-----5-8-10-12-8-8---|
B|-8---------------8-8---------------|-8-8---------------8-|
G|-----------------------------------|---------------------|
D|-----------------------------------|---------------------|
A|-----------------------------------|---------------------|
E|-----------------------------------|---------------------|
I don't wanna live forever, 'cause I know I'll be living in vain
And I don't wanna fit wherever

e|---7-7-7-7-7-8-7-5-----------|-------------------|
B|-8-----------------5-3-1-3---|-1-6-5-1---5-3-5-1-|
G|---------------------------2-|---------0---------|    (x2)
D|-----------------------------|-------------------|
A|-----------------------------|-------------------|
E|-----------------------------|-------------------|
I just wanna keep calling your name until you come back home
(Oh-oh-oh-oh-oh-oh)

e|---7-7-7-7-7-8-7-5-----------|
B|-8-----------------5-3-1-3---|
G|---------------------------2-|
D|-----------------------------|
A|-----------------------------|
E|-----------------------------|
I just wanna keep calling your name until you come back home

[Bridge - ZAYN & Taylor Swift]
e|-------------------------|-8-8-----8-8-----|-------------------------|---8-5-8-5---8-8---|
B|-6-5-3-1-3-3-6-5-3-1-3-3-|-----8-8-----8-8-|-6-5-3-1-3-3-6-5-3-1-3-3-|-8---------8-----8-|
G|-------------------------|-----------------|-------------------------|-------------------|
D|-------------------------|-----------------|-------------------------|-------------------|
A|-------------------------|-----------------|-------------------------|-------------------|
E|-------------------------|-----------------|-------------------------|-------------------|
I've been looking sad in all the nicest places
Baby, baby, I feel crazy
I see you around in all these empty faces
Up all night, all night and every day

e|-------------------------|-8-8-------8-8-------|---------------5-8-5-10-8-|---5-8-5-8-10-12-|
B|-6-5-3-1-3-3-6-5-3-1-3-3-|-----8-8-8-----8-8-8-|-6-5-3-1-3-3-8------------|-8---------------|
G|-------------------------|---------------------|--------------------------|-----------------|
D|-------------------------|---------------------|--------------------------|-----------------|
A|-------------------------|---------------------|--------------------------|-----------------|
E|-------------------------|---------------------|--------------------------|-----------------|
I've been looking sad in all the nicest places
Give me something, oh, but you say nothing
Now I'm in a cab, I tell 'em where your place is
What is happening to me?

[Chorus - ZAYN]
e|---5-8-10-12-8-8-----7-7-7-7-7-8-5-|-----5-8-10-12-8-8---|
B|-8---------------8-8---------------|-8-8---------------8-|
G|-----------------------------------|---------------------|
D|-----------------------------------|---------------------|
A|-----------------------------------|---------------------|
E|-----------------------------------|---------------------|
I don't wanna live forever, 'cause I know I'll be living in vain
And I don't wanna fit wherever

e|---7-7-7-7-7-8-7-5-----------|-------------------|
B|-8-----------------5-3-1-3---|-1-6-5-1---5-3-5-1-|
G|---------------------------2-|---------0---------|    (x5)
D|-----------------------------|-------------------|
A|-----------------------------|-------------------|
E|-----------------------------|-------------------|
I just wanna keep calling your name until you come back home
(Oh-oh-oh-oh-oh-oh)

[Outro: Taylor Swift & ZAYN]
e|---7-7-7-7-7-8-7-5-----------|-----------|
B|-8-----------------5-3-1-3---|-5-3-1-3---|
G|---------------------------2-|---------2-|
D|-----------------------------|-----------|
A|-----------------------------|-----------|
E|-----------------------------|-----------|
I just wanna keep calling your name until you come back home
Until you come back home

            
            
Suggest correction
Creating personal tab
Creating personal tab
You can edit any tab online and save it as your Personal.

You can edit, replace or remove any tab part or add personal notes – all changes will be seen only by you.

Personal tabs can be accessed anytime from any device, even offline.
Learn more »
comments
print report bad tab
2 comments total.
0 reply
leenu1976 10 Jul 15, 2017 11:59 PM

very easy tabs 😀

0 reply
menezeskinnigoli 10 Sep 08, 2017 06:39 AM

so easy tab it sounds nice

guest
You may want to rate the tab now too:
select rating
Wanna post a correction for this tab? Suggest correction