Oops, an error
Loading. Please wait.
We have an official I Knew You Were Trouble tab made by UG professional guitarists. Check out the tab »
×
14,246 views 24 this week
2 commentsread comments
1 2 3 4 5
x 6
add to favorites
×
Save as Personal and add changes to this tab that will be seen only by you. Learn more ›
×
You can save this tab as Personal to edit and correct it or add notes. All changes will be seen only by you. Learn more »
launch autoscroll
font size
0
reset
guitar tuner
edit
Autoscroll
slow
fast
+/-
esc
set tempo
stop
-----------------------------------------------------------------------------
             I Knew You Were Trouble - Taylor Swift
-----------------------------------------------------------------------------

Tabbed by: Country Bass
E-mail: aaron.white8@education.nsw.gov.au

Tuning: Standard



Verse


Bass comes in after Taylor sings 'Found me-e-e-e-ee'
and in verse 2 comes in after Taylor sings 'Drowning-i-i-i-ing'

G|-----|--------------------------------|
D|--9\-|-4-(x16)------------------------|
A|-----|-------4-(x16)-6-(x16)-2-(x16)--| x2
E|-----|--------------------------------|

Pre-Chorus

G|-----------------------|
D|-----------------4-----|
A|--6----2----4-------4--| x2
E|-----------------------|

G|------------------------------------------------------------------|
D|-------------------------4-4-4-4-------------------------------4--|
A|--6-(x8)-2-(x8)--4-(x8)----------4-4-4-4--6-(x8)-2-(x8)-4-(x8)----| 
E|------------------------------------------------------------------|

Chorus 1

G|------------------------------|
D|-----------------4-4-4--------|
A|--6----2----4----------4-4-4--| x2
E|------------------------------|

Chorus 2

G|------------------------------|
D|-----------------4-4-4--------|
A|--6----2----4----------4-4-4--| x4
E|------------------------------|

G|------------------------------|
D|-----------------4-4-4--------|
A|--6/----2/----4--------4-4-4--| x2
E|------------------------------|

The slides sound best when you slide the 6 up to the 17 and the 2 to the 15

Bridge

G|--------------------------------------------|
D|-----------------------------4--------------|
A|--4--------2--------4-------------4---------|
E|--------------------------------------------|

Outro

G|------------------------------|
D|-----------------4-4-4--------|
A|--6----2----4----------4-4-4--| x2
E|------------------------------|

G|------------------------------|
D|-----------------4-4-4--------|
A|--6----2----4-----------------|
E|------------------------------|


Playing Order

Verse
Pre-Chorus
Chorus 1
Verse
Chorus2
Bridge
Chorus 2
Outro

| /  slide up
| \  slide down
| h  hammer-on
| p  pull-off
| ~  vibrato
| +  harmonic
| x  Mute note
=============================================================================

            
            
Suggest correction
Creating personal tab
Creating personal tab
You can edit any tab online and save it as your Personal.

You can edit, replace or remove any tab part or add personal notes – all changes will be seen only by you.

Personal tabs can be accessed anytime from any device, even offline.
Learn more »
comments
print report bad tab
2 comments total.
0 reply
Country Bass 2,969 Jul 27, 2013 01:55 PM

Thanks for all the stars and views everyone

0 reply
RickyRubio 538 Feb 08, 2016 08:36 AM

Not perfect, but good job. One Correction (Bridge):

G|--------------------------------------------|
D|--------------------------------------------|
A|--2--------6--------2--------4--------------|
E|--------------------------------------------|

guest
You may want to rate the tab now too:
select rating
Wanna post a correction for this tab? Suggest correction