Oops, an error
Loading. Please wait.

If This Was A Movie Tab

version 1
version 1

Whole song

60,438 views 36 this week
7 commentsread comments
1 2 3 4 5
excellent!
x 20
add to favorites
launch autoscroll
font size
0
reset
how to read this tab
guitar tuner
Autoscroll
slow
fast
+/-
esc
set tempo
stop
Help us to improve Ultimate-Guitar.com Take our survey!
×
Contributor
Artist:Taylor Swift
song:If This Was A Movie
quality:perfect!

symbols:
> =transpose

Intro:
e|----0---0----0---0---0---0---0---0---0---0---0-|
B|-----------------------------------------------|
G|---8-8-8----8-8-8-8-8-8-8-8-8-8-8-8-8-8-8-8-8--|
D|--9---9----9---9---9---9---9---9---9---9---9---|
A|-----------------------------------------------|
E|-----------------------------------------------|

Intro Chords:
           A
e|----0----0--0----0-|
B|--------0-------0--|
G|---8-8-8---8-8-8---|
D|--9---9---9---9----|
A|--0----------------|
E|-------------------|
           B
e|----0----0--0----0-|
B|--------0-------0--|
G|---8-8-8---8-8-8---|
D|--9---9---9---9----|
A|-------------------|
E|--7----------------|
          C#m
e|----0----0--0----0-|
B|--------0-------0--|
G|---8-8-8---8-8-8---|
D|--9---9---9---9----|
A|-------------------|
E|--9----------------|
            B
e|----0----0--0----0-|
B|--------0-------0--|
G|---8-8-8---8-8-8---|
D|--9---9---9---9----|
A|-------------------|
E|--7----------------|


[Verse 1]
  A
Last night I heard my own heart beating
 B
Sounded like footsteps on my stairs
 C#m
Six months gone and I’m still reaching
 B
Even though I know you’re not there

 A
I was playing back a thousand memories baby
 B
Thinking about everything we’ve been through
 C#m
Maybe I’ve been going back too much lately
 B
When time stood still and I had you




Chorus:
[strum]
    E      B    C#m    A
e|--0--|---0--|--0--|--0--|
B|--0--|---0--|--0--|--0--|
G|--9--|---4--|--6--|--2--|
D|--9--|---4--|--6--|--2--|
A|--7--|---2--|--4--|--0--|
E|-----|------|-----|-----|
 E
Come back, come back, come back to me like
 B
You would, you would if this was a movie
 C#m              B                  A     
Stand in the rain outside til I came out
 E
Come back, come back, come back to me like
 B
You could, you could if you just said you’re sorry
 C#m              B                   A 
I know that we could work it out somehow
 B
But if this was a movie, you’d be here right now


[do verse 1]
A
I know people change and these things happen
B
But I remember how it was back then
C#m
Locked up in your arms and our friends are laughing
B
Cause nothing like this ever happened to them


A
Now I’m pacing down the hall
B
Chasing down your street
C#m                         B
Flashback to a night when you said to me
A                           B
Nothing’s gonna change, not for me and you
C#m                         B
Not before I knew how much I had to lose


[do chorus]
E
Come back, come back, come back to me like
B
You would, you would if this was a movie
C#m               B                    A    
Stand in the rain outside til I came out
E
Come back, come back, come back to me like
B
You could, you could if you just said you’re sorry
C#m                B                 A  
I know that we could work it out somehow
B
But if this was a movie, you’d be here right now


[SOLO during this Chords: A B C#m]
e|-----0-------------------------|
B|--------------------12>9>12>9--|
G|----8-8-9>11--9-11-------------|
D|---9---------------------------|
A|--0----------------------------|
E|-------------------------------|


[strum] do verse 1]
A                                         B                     C#m
If you you’re out there, if you’re somewhere, if you’re moving on
                                 B                             
I’ve been waiting for you wary since you’ve been gone
A                                     B
I just want it back the way it was before
C#m              B           C#m               A               
And I just want to see you back at my front door





[do This]
          E
e|----0----0---0----0-|
B|--------0--------0--|
G|---8---8----8---8---|
D|--9---9----9---9----|
A|-7--------7---------|
E|--------------------|
          B
e|----0----0---0----0-|
B|--------0--------0--|
G|---8---8----8---8---|
D|--9---9----9---9----|
A|--------------------|
E|-7--------7---------|
          C#m
e|----0----0---0----0-|
B|--------0--------0--|
G|---8---8----8---8---|
D|--9---9----9---9----|
A|--------------------|
E|-9--------9---------|

And I say
E
Come back, come back, come back to me like
B
You would, before you said it’s not that easy
e|----0----0-|----0----0-|----0---0--|
B|--------0--|--------0--|-------0---|
G|---8---8---|---8---8---|---8--8----|
D|--9---9----|--9---9----|--9--9-----|
A|-----------|-----------|-0---------|
E|-9---------|-7---------|-----------|
     C#m           B           A
Before the fight, before I left you out
      B(one strum)
But I take it all back now



[do chorus]
E
Come back, come back, come back to me like
B
You would, you would if this was a movie
C#m                 B                 A     B
Stand in the rain outside til I came out

E
Come back, come back, come back to me like
B
You could, you could if you just said you’re sorry
C#m                 B                  A     
I know that we could work it out somehow
    B(one strum)                           
But if this was a movie, you’d be here right now

(do verse one)

[do verse one]       
                      A  B  C#m
You’d be here right now
                                              A  B  C#m
It’s not the kind of ending you want to see now
                         A  B  C#m
Figure out a better ending
Oh
                                 A-B-C#m--   A-B-C#m--
I thought you’d be here right now
Whoa oh
                                A-B-C#m--   A-B-C#m--
Thought you’d be here right now . . .
comments
print report bad tab
7 comments total. Showing first comments.
0 reply
rockallthetime 14 wrote on November 4 2010, 07:04 am

really good!!!perfect!!thnks a ton!

0 reply
TheJanistonfan 394 wrote on November 4 2010, 07:26 pm

thnkz mis...............................

-1 reply
PlayAllNight 157 wrote on February 26 2011, 01:17 pm

this is brilliant! thanks! :D

I want to post or [tab]
guest
You may want to rate the tab now too:
select rating
Please do not post tabs as comments. Select "correction" instead!