Oops, an error
Loading. Please wait.

Im Only Me When Im With You Bass Tab

version 1
version 1

Whole song

Interactive

1,309 views 1 this week
no commentswrite comment
1 2 3 4 5
1 last vote to show rating
add to favorites
launch autoscroll
font size
0
reset
guitar tuner
Autoscroll
slow
fast
+/-
esc
set tempo
stop
Help us to improve Ultimate-Guitar.com Take our survey!
×
Author
------------------------------------------------------------------------------
IM ONLY ME WHEN I'M WITH YOU - Taylor Swift
-------------------------------------------------------------------------------

Tabbed By : n00bzilla99
Tuning: Standard (EADG)

Verse 1
G|-----------------------------------------------------------------------------------|
D|-333333333333333333333333333333331111111111111111----------------------------------|
A|-------------------------------------------------3333333333333333------------------|
E|-----------------------------------------------------------------5555555555555555--|

G|-------------------------------------------------------------------|
D|-33333333333333331111111111111111----------------------------------|
A|---------------------------------3333333333333333------------------|
E|-------------------------------------------------5555555555555555--|

Pre-Chorus 1
G|-------------------------------------------------|
D|-------3~---------1~-----------------------------|
A|--------------------------------3~---------------|
E|--------------------------------------------5~---|

Chorus
G|-------------------------------------------------|
D|-------------------------------------------------|
A|-22----55----44-22--5--4--22-2-2-2-5-5-4-4-2-2---|  x2
E|-------------------------------------------------|

G|-------------------------------------------------|
D|-------------------------------------------------|
A|-2---5---4----4/2-2-2-2-2-2-2---4/2-2-2-2-2-2-2--|
E|-------------------------------------------------|


Verse 2
G|-------------------------------------------------------------------|
D|-33333333333333331111111111111111----------------------------------|
A|---------------------------------3333333333333333------------------|  x2
E|-------------------------------------------------5555555555555555--|

Pre-Chorus 2
G|-------------------------------------------------|
D|-------3~---------1~-----------------------------|
A|--------------------------------3~---------------|
E|--------------------------------------------5~---|

Chorus 2
G|-------------------------------------------------|
D|-------------------------------------------------|
A|-22--55--44--22--5/4--44--2--2--5-5-5-4-4-4-2-2-2|  x2
E|-------------------------------------------------|

G|-------------------------------------------------|
D|-------------------------------------------------|
A|-2---5---4----4/2-2-2-2-2-2-2---4/2-2-2-2-2-2-2--|
E|-------------------------------------------------|

Bridge
G|---------------------------------------------------------------------------|
D|---------------------------------------------------------------------------|
A|--2-2-2-2-2-2-2-2---5-5-5-5-5-5-5-5---4-4-4-4-4-4-4-4---------5/2~---------|
E|---------------------------------------------------------------------------|

Chorus 3
G|---------------------------------------------------------------------------|
D|---------------------------------------------------------------------------|
A|--2-2-2-2-2-2-2-2-5-5-5-5-5-5-5-5-4-4-4-4-4-4-4-4-2-2-2-2-2-2-2-2-2--------|  x2
E|---------------------------------------------------------------------------|

Outro
G|------------------------------------------------------------------------------------------|
D|------------------------------------------------------------------------------------------|
A|--2-2-2-2-2-2-2-2-5-5-5-5-5-5-5-5-4-4-4-4-4-4-4-4---4/2-2-2-2-2-2-2---4/2-2-2-2-2-2-2---2~|
E|------------------------------------------------------------------------------------------|


| /  slide up
| \  slide down
| h  hammer-on
| p  pull-off
| ~  vibrato
| +  harmonic
| x  Mute note

Be very careful with this song, you need to listen very carefully for the timing, my 
spacing is generally correct but if you listen to get the timing you should get it no problem!
Suggest correction
Give kudos to tab author, rate the tab!
1 2 3 4 5
comments
print report bad tab
guest
You may want to rate the tab now too:
select rating
Wanna post a correction for this tab? Suggest correction