Oops, an error
Loading. Please wait.
We have an official Love Story tab made by UG professional guitarists. Check out the tab »
×
1,843 views 3 this week
no commentswrite comment
1 2 3 4 5
x 9
add to favorites
×
Save as Personal and add changes to this tab that will be seen only by you. Learn more ›
×
You can save this tab as Personal to edit and correct it or add notes. All changes will be seen only by you. Learn more »
launch autoscroll
font size
0
reset
transpose
0
reset
display chords
guitar tuner
backing track
0:00
0:00
edit
Autoscroll
slow
fast
+/-
esc
set tempo
stop
Author
Difficulty
Strumming
There is no strumming pattern for this song yet. and get +5 IQ
We were both young when I first saw you...

3---3----3------3---3---2---3----5---3
--------------------------------------
--------------------------------------
--------------------------------------

I closed my eyes and the flashbacks start, you're standing there

3---2-----3--3----3---2----3-3-------5------3-------2-3------0
--------------------------------------------------------------
--------------------------------------------------------------
--------------------------------------------------------------

On the balcony and summer air

3---3---3-2-0--------------0-
----------------3---3-3------
-----------------------------
-----------------------------

See the lights see the parties the ball gowns

3----3----3-----3---3---2-3-----3---5----3---
---------------------------------------------
---------------------------------------------
---------------------------------------------

See you make your way through the crowd and say hello ... little did I know

3---3-----3---3----3----2------3----5----3---2---3-0--------3-2---0-----0--
---------------------------------------------------------------------3-----
---------------------------------------------------------------------------
---------------------------------------------------------------------------

That you Romeo you were throwing pebbles and my daddy said stay away from Juliet

3-----3--3-3-3--3---3----2-3------5-3-----3---3--3-3---3----3----3-3---3--10-8-7
--------------------------------------------------------------------------------
--------------------------------------------------------------------------------
--------------------------------------------------------------------------------

But you were everything to me I was begging you please don't go
5----7---5-----7-7-7-----7-7--7--5---7-7-----7----7-----5----8s7
----------------------------------------------------------------
----------------------------------------------------------------
----------------------------------------------------------------

And I said...Romeo  take me somewhere we can be alone

7---7--5-----3-3-8--7s5--3----3-5-----5---3---7--3-5-
-----------------------------------------------------
-----------------------------------------------------
-----------------------------------------------------

I'll keep waiting all that's left to do is run

3-----5-----7-5---3-----5------5--3--7--3---5-
----------------------------------------------
----------------------------------------------
----------------------------------------------

You'll be the prince and I'll be the princess,

3------5---3----7-----5----3---5--3----7-5---
---------------------------------------------
---------------------------------------------
---------------------------------------------

It's a love story  baby just say yes

3----3--5---7s5-7--7-5---7---7s5--3-
------------------------------------
------------------------------------
------------------------------------


            
            
Suggest correction
Creating personal tab
Creating personal tab
You can edit any tab online and save it as your Personal.

You can edit, replace or remove any tab part or add personal notes – all changes will be seen only by you.

Personal tabs can be accessed anytime from any device, even offline.
Learn more »
comments
print report bad tab
guest
You may want to rate the tab now too:
select rating
Wanna post a correction for this tab? Suggest correction