Oops, an error
Loading. Please wait.

Love Story Tab

version 2
147,463 views 27 this week
1 commentread comment
1 2 3 4 5
accurate
x 16
add to favorites
launch autoscroll
font size
0
reset
how to read this tab
guitar tuner
Autoscroll
slow
fast
+/-
esc
set tempo
stop
Help us to improve Ultimate-Guitar.com Take our survey!
×
Author
Difficulty
Hi :) No one had an actual *tab* up for this song so I thought I'd make one myself :) enjoy :)

e-----0---0-----------0---0------------0---0-----------0---0-------|
B-------3---3---3-------3---3---3--------3---3---3-------3---3---3-|
G---2---------2-----2---------2----0-2---------2---0-2---------2---|
D-4---------------4------------------------------------------------|
A------------------------------------------------------------------|
E------------------------------------------------------------------|

e-----0---0-----------0---0------------0---0-----------0---0-------|
B-------3---3---3-------3---3---3--------3---3---3-------3---3---3-|
G---2---------2-----2---------2----0-2---------2---0-2---------2---|
D-4---------------4------------------------------------------------|
A------------------------------------------------------------------|
E------------------------------------------------------------------|

e-----0---0-----------0---0------------0---0-----------0---0-------|
B-------3---3---3-------3---3---3--------3---3---3-------3---3---3-|
G---2---------2-----2---------2----0-2---------2---0-2---------2---|
D-4---------------4------------------------------------------------|
A------------------------------------------------------------------|
E------------------------------------------------------------------|
     We were both young when I first saw you...

e-----0---0-----------0---0------------0---0-----------0---0-------|
B-------3---3---3-------3---3---3--------3---3---3-------3---3---3-|
G---2---------2-----2---------2----0-2---------2---0-2---------2---|
D-4---------------4------------------------------------------------|
A------------------------------------------------------------------|
E------------------------------------------------------------------|
  I'm standing there...

e-----0---0-----------0---0------------0---0-----------0---0-------|
B-------3---3---3-------3---3---3--------3---3---3-------3---3---3-|
G---2---------2-----2---------2----0-2---------2---0-2---------2---|
D-4---------------4------------------------------------------------|
A------------------------------------------------------------------|
E------------------------------------------------------------------|
  See the lights, see the party, the ball gowns...

e-----0---0-----------0---0------------0---0-----------0---0-------|
B-------3---3---3-------3---3---3--------3---3---3-------3---3---3-|
G---2---------2-----2---------2----0-2---------2---0-2---------2---|
D-4---------------4------------------------------------------------|
A------------------------------------------------------------------|
E------------------------------------------------------------------|
  And say hello...

e-----0---0-----------0---0------------0---0-----------0---0-------|
B-------3---3---3-------3---3---3--------3---3---3-------3---3---3-|
G---2---------2-----2---------2----0-2---------2---0-2---------2---|
D-4---------------4------------------------------------------------|
A------------------------------------------------------------------|
E------------------------------------------------------------------|
  That you were Romeo...

e-----0---0-----------0---0------------0---0-----------0---0-------|
B-------3---3---3-------3---3---3--------3---3---3-------3---3---3-|
G---2---------2-----2---------2----0-2---------2---0-2---------2---|
D-4---------------4------------------------------------------------|
A------------------------------------------------------------------|
E------------------------------------------------------------------|
  And I was crying on the staircase...

And I said

 C
Romeo take me somewhere we can be alone 
 G
I'll be waiting all theres left to do is run 
 Am
You be the prince i'll be the princess 
 F                G            (no chord)                 
Its a love story baby just say yes 

e-----0---0-----------0-|
B-------3---3---3-------|
G---2---------2-----2---|
D-4---------------4-----|
A-----------------------|
E-----------------------|

e-----0---0-----------0---0------------0---0-----------0---0-------|
B-------3---3---3-------3---3---3--------3---3---3-------3---3---3-|
G---2---------2-----2---------2----0-2---------2---0-2---------2---|
D-4---------------4------------------------------------------------|
A------------------------------------------------------------------|
E------------------------------------------------------------------|
  So I sneak out to the garden to see you...

e-----0---0-----------0---0------------0---0-----------0---0-------|
B-------3---3---3-------3---3---3--------3---3---3-------3---3---3-|
G---2---------2-----2---------2----0-2---------2---0-2---------2---|
D-4---------------4------------------------------------------------|
A------------------------------------------------------------------|
E------------------------------------------------------------------|
  So close your eyes...

e-----0---0-----------0---0------------0---0-----------0---0-------|
B-------3---3---3-------3---3---3--------3---3---3-------3---3---3-|
G---2---------2-----2---------2----0-2---------2---0-2---------2---|
D-4---------------4------------------------------------------------|
A------------------------------------------------------------------|
E------------------------------------------------------------------|
  Cuz you were Romeo, I was a scarlet letter...

e-----0---0-----------0---0------------0---0-----------0---0-------|
B-------3---3---3-------3---3---3--------3---3---3-------3---3---3-|
G---2---------2-----2---------2----0-2---------2---0-2---------2---|
D-4---------------4------------------------------------------------|
A------------------------------------------------------------------|
E------------------------------------------------------------------|
  And you were everything to me...

And I said

 C
Romeo take me somewhere we can be alone 
 G
I'll be waiting all theres left to do is run 
 Am
You be the prince I'll be the princess 
 F                G                
Its a love story baby just say yes 

  C
Romeo save me, they're trying to tell me how to feel
  G
This love is difficult, but its real, 
  Am
Don't be afraid, we'll make it out of this mess
 F                G 
Its a love story baby just say yes

C G Am F

                 Am     F               C              G
I got tired of waiting,   wondering if you were ever coming around 
             Am        F
My faith in you was fading
                         C           G
When i met you on the outskirts of town

And I said

  C
Romeo save me, I've been feeling so alone 
 G
I keep waiting for you, but you never come 
    Am
Is this in my head, I don't know what to think 
    F                        G
He knelt to the ground and pulled out a ring and said
  D
Marry me Juliet you'll never have to be alone 
   A
I love you and that's all I really know 
   Bm
I talked to your dad, go pick out a white dress
 G                 A            D
Its a love story, baby just say yes

D A Bm

G                       A           (no chord)
We were both young when I first saw you
Suggest correction
comments
print report bad tab
1 comment total.
+1 reply
davanavad 10 wrote on January 28 2009, 12:23 pm

easy to play and it sounds really good =]

guest
You may want to rate the tab now too:
select rating
Wanna post a correction for this tab? Suggest correction