Oops, an error
Loading. Please wait.

Love Story Bass Tab

version 3
version 3

Whole song

8,893 views 15 this week
no commentswrite comment
1 2 3 4 5
excellent!
x 5
add to favorites
launch autoscroll
font size
0
reset
guitar tuner
Tab Pro tools
  • play this tab
  • loop segment
  • change instrument
  • show fretboard
  • metronome
×
Best way to learn
"Love Story"
Autoscroll
slow
fast
+/-
esc
set tempo
stop
Difficulty
intermediate
-------------------------------------------------------------------------------
			     Love Story - Taylor Swift
-------------------------------------------------------------------------------

Tabbed By: npratt
e-mail: DrNickPratt@gmail.com

Tuning: Standard

Come in at 0:32

G|----------------|----------------|----------------|----------------|
D|----------------|----------------|----------------|----------------|
A|5---------------|----------------|----------------|----------------|
E|----------------|3---------------|7---------------|5---------------|

0:48

G|----------------|----------------|----------------|----------------|
D|----------------|----------------|----------------|----------------|
A|----------------|--------5--55---|----------------|----------------|
E|3--33---5--55---|7--77-----------|3--33---5--55---|7--77---3-3-5-5-|

1:05

G|----------------|----------------|----------------|----------------|----------------|
D|----------------|----------------|----------------|----------------|----------------|
A|5--55---5--55-5-|----------------|----------------|--------0-0-0---|5(low D)--------|
E|----------------|5--55---5--55-5-|7--77---7--77-7-|3-3-3-3---------|----------------|

1:22

G|----------------|----------------|----------------|----------------|
D|----------------|----------------|----------------|----------------|
A|5---5---5---5---|----------------|----------------|----------------|
E|----------------|3---3---3---3---|7---7---7---7---|5---5---5---5---|

1:41

G|----------------|----------------|----------------|----------------|
D|----------------|----------------|----------------|----------------|
A|----------------|--------5--55---|----------------|----------------|
E|3--33---5--55---|7--77-----------|3--33---5--55---|7--77---3-3-5-5-|

1:57

G|----------------|----------------|----------------|----------------|
D|----------------|----------------|----------------|----------------|
A|5--55---5--55-5-|----------------|----------------|----------------|
E|----------------|5--55---5--55-5-|7--77---7--77-7-|3--33-3-5-5-5757|

2:13

G|----------------|----------------|----------------|----------------|
D|----------------|----------------|----------------|----------------|
A|5--55---5--55-5-|----------------|----------------|----------------|
E|----------------|5--55---5--5555-|7--77---7--7777-|3--3353-5-5-5757|

2:30

G|----------------|----------------|----------------|----------------|
D|----------------|----------------|----------------|----------------|
A|5-555-5-5-555-5-|----------------|----------------|----------------|
E|----------------|5-555-5-5-555-5-|7-777-7-7-777-7-|3-333-3-5-555-5-|

2:48

G|----------------|----------------|----------------|----------------|
D|----------------|----------------|----------------|----------------|
A|----------------|5---------------|----------------|5---------------|
E|7-------3-------|--------5-------|7-------3-------|--------5-------|

3:04

G|----------------|----------------|----------------|----------------|
D|----------------|----------------|----------------|----------------|
A|----------------|----------------|----------------|----------------|
E|----------------|----------------|7777777777777777|3333333355555555|

3:19

G|----------------|----------------|----------------|----------------|
D|----------------|----------------|----------------|----------------|
A|7777777777777777|----------------|----------------|----------------|
E|----------------|7777777777777777|9999999999999999|5555555577777777|

3:36

G|----------------|----------------|----------------|------------------------|
D|----------------|---------------7|----------------|------------------------|
A|7777777777777777|--------------9-|----------------|--------1212121212121212|
E|----------------|77777777777777--|9999999999999999|55555555----------------|

comments
print report bad tab
I want to post or [tab]
guest
You may want to rate the tab now too:
select rating
Please do not post tabs as comments. Select "correction" instead!