Oops, an error
Loading. Please wait.

Love Story Tab

version 3
73,753 views 639 this week
3 commentsread comments
1 2 3 4 5
accurate
x 10
add to favorites
launch autoscroll
font size
0
reset
how to read this tab
guitar tuner
Autoscroll
slow
fast
+/-
esc
set tempo
stop
Help us to improve Ultimate-Guitar.com Take our survey!
×
Contributor
Capo
sgw89 120
2nd fret
Song: Love Story 
Artist: Taylor Swift
Tabbed by: Scott Ward



Capo 2, but leave high "e" string open.  Also when playing chords, play normally 
buy leave high "e" string open.

Intro:
e||-------0-----0-----------|-------0-----0-----------|
B||----------1-----1-----1--|----------1-----1-----1--|
G||-----0-------------0-----|-----0-------------0-----|
D||--2----------------------|--2----------------------| 
A||-------------------------|-------------------------| 
E||-------------------------|-------------------------|  

                                      
|--------0-----0-----------|--------0-----0-----------|
|-----------1-----1-----1--|-----------1-----1-----1--| 
|-----0--------------0-----|-----0--------------0-----|
|--0-----------------------|--0-----------------------|
|--------------------------|--------------------------| 
|--------------------------|--------------------------|
 
                                    
|--------0-----0-----------|--------0-----0-----------|
|-----------1-----1-----1--|-----------1-----1-----1--|
|-----2--------------2-----|-----2--------------2-----|
|--2-----------------------|--2-----------------------|
|--------------------------|--------------------------|
|--------------------------|--------------------------|

              
|--------0-----0-----------|--------0-----0-----------|
|-----------1-----1-----1--|-----------1-----1-----1--|
|-----0--------------0-----|-----0--------------0-----|
|--3-----------------------|--3-----------------------|
|--------------------------|--------------------------|
|--------------------------|--------------------------|



All Verses:
e||-------0-----0-----------|-------0-----0-----------|
B||----------1-----1-----1--|----------1-----1-----1--|
G||-----0-------------0-----|-----0-------------0-----|
D||--2----------------------|--2----------------------| 
A||-------------------------|-------------------------| 
E||-------------------------|-------------------------|  
     We were both young when i first saw you 

|--------0-----0-----------|--------0-----0-----------|
|-----------1-----1-----1--|-----------1-----1-----1--|
|-----0--------------0-----|-----0--------------0-----|
|--0-----------------------|--0-----------------------|
|--------------------------|--------------------------|
|--------------------------|--------------------------|
 I close my eyes and the flashback starts, I'm standing

|--------0-----0-----------|--------0-----0-----------|
|-----------1-----1-----1--|-----------1-----1-----1--|
|-----2--------------2-----|-----2--------------2-----|
|--2-----------------------|--2-----------------------|
|--------------------------|--------------------------|
|--------------------------|--------------------------|
  there...                   on a balcony of

|--------0-----0-----------|--------0-----0-----------|
|-----------1-----1-----1--|-----------1-----1-----1--|
|-----0--------------0-----|-----0--------------0-----|
|--3-----------------------|--3-----------------------| 
|--------------------------|--------------------------|
|--------------------------|--------------------------|
      summer air



Verse 2:
See the lights, See the party the ball gowns
I see you make your way through the crowd 
You say hello 
Little did I know 

That you were romeo you were throwing pebbles 
And my daddy said stay away from Juliet 
And I was crying on the staircase 
Begging you please don't go, and I said 

Chorus:
  C
Romeo take me somewhere we can be alone 
 G
I'll be waiting all there's left to do is run 
 Am
You'll be the prince and I'll be the princess 
 F                G                 C
It's a love story baby just say yes 

Verse 3:
So I sneak out to the garden to see you 
We keep quite because we're dead if they know 
So close your eyes 
Let’s keep this down for a little while 
Cause you were Romeo I was a scarlet letter 
And my daddy said stay away from Juliet 

But you were everything to me 
And I was begging you please don't go and I said 

Chorus:
 C
Romeo take me somewhere we can be alone 
 G
I'll be waiting all there's left to do is run 
 Am
You be the prince I'll be the princess 
 F                G                 C
It's a love story baby just say yes 

  C
Romeo save me, try to tell me how it is 
  G
This love is difficult, but it's real, 
  Am
Save me from the breakdown, make it out of looseness 
 F                G 
It's a love story baby just say yes, oh

Solo: C  G  Am  F

Bridge:
                 Am     F               C              G
I got tired of waiting,   wondering if you were ever coming around 
             Am        F
My faith in you was fading
                         C           G
Then I met you on the outskirts of town and I said 


Verse 4:
Romeo save me I've been feeling so alone 
I keep waiting for you but you never come 
Is this in my head, I don't know what to think 
He knelt to the ground and pulled out a ring and said (Key Change)

Chorus:
  D
Marry me Juliet you'll never have to be alone 
   A
I love you and that's all I really know 
   Bm
I talked to your dad go pick out a white dress
 G                 A            D
It's a love story baby just say yes 
D   A   Bm
Oh, oh, yes 

Outro:
         G                           D
We were both young when I first saw you  
Suggest correction new What's this?
You can suggest a correction to this tab. Community and Mods will review your correction and vote to approve or reject it.
comments
print report bad tab
3 comments total.
+1 reply
paimanscoop 45 wrote on November 26 2008, 03:26 am

best tab. great work man

-1 reply
bloodysage24 23 wrote on April 24 2009, 11:49 pm

Sorry man, but this tab doesn't really sound like the real thing. Maybe you should try tweaking it a little.

+1 reply
songhye 19 wrote on July 5 2009, 11:09 pm

agreed. best tab, & easiest to play

guest
You may want to rate the tab now too:
select rating
Please do not post tabs as comments. Select "correction" instead!