Oops, an error
Loading. Please wait.
We have an official Mine tab made by UG professional guitarists. Check out the tab »
×

Mine tab

version 3
version 3

Whole song

  • Because this is the first one to have the whole ta... Show more

Interactive

142 views 1 this week
no commentswrite comment
1 2 3 4 5
2 more votes to show rating
add to favorites
×
Save as Personal and add changes to this tab that will be seen only by you. Learn more ›
×
You can save this tab as Personal to edit and correct it or add notes. All changes will be seen only by you. Learn more »
launch autoscroll
font size
0
reset
how to read this tab
guitar tuner
edit
Autoscroll
slow
fast
+/-
esc
set tempo
stop
Author
Difficulty
About this tab version
Because this is the first one to have the whole tab of the song. It has rhythm and lead guitar. Was this info helpful? Yes No
[Intro]

Lead:

e|-----12~--11~-11~--------------------------|
B|-8-8----8---------8-10h12-10/8-------------|
G|-------------------------------------------|
D|-------------------------------------------| [x3]
A|-------------------------------------------|
E|-------------------------------------------|

e|-----12~-----------------------------------|
B|-8-8----8-8\10~----------------------------|
G|-------------------------------------------|
D|-------------------------------------------| 
A|-------------------------------------------|
E|-------------------------------------------|

Rhythm: (palm mute)

e|------------------------------------------|
B|------------------------------------------|
G|-5-5-5-5-----------7-7-7-7-7-7-7-7--------|
D|-5-5-5-5--5-5-5-5--7-7-7-7-7-7-7-7--------| [x4]
A|-3-3-3-3--5-5-5-5--5-5-5-5-5-5-5-5--------|
E|----------3-3-3-3-------------------------|


[Verse]

You were in college, workin’ part time, waitin’ tables...
Wonderin’ why we bother with love if it never last...

Rhythm: (palm mute)

e|-------------------------------------------|
B|-------------------------------------------|
G|-5-5-5-5-----------7-7-7-7-7-7-7-7~--------|
D|-5-5-5-5--5-5-5-5--7-7-7-7-7-7-7-7~--------| [x4]
A|-3-3-3-3--5-5-5-5--5-5-5-5-5-5-5-5~--------|
E|----------3-3-3-3--------------------------|


I say, “Can you believe it?”
As we’re lyin’ on the couch
The moment I could see it
Yes, yes, I can see it now

Lead:

e|---8-7~-3-3\5~----------------------------|
B|-8----------------------------------------|
G|------------------------------------------|
D|------------------------------------------| [x4]
A|------------------------------------------|
E|------------------------------------------|

Rhythm: (palm mute)

e|------------------------------------------|
B|------------------------------------------|
G|-5-5-5-5-----------7-7-7-7-7-7-7-7~-------|
D|-5-5-5-5--5-5-5-5--7-7-7-7-7-7-7-7~-------| [x4]
A|-3-3-3-3--5-5-5-5--5-5-5-5-5-5-5-5~-------|
E|----------3-3-3-3-------------------------|


[Chorus]

Do you remember, we were sittin’ there, 
by the water...
You put your arm around me..

Lead:

e|----------------------------------------------|
B|-3\8~-3~-3\7----------------------------------|
G|----------------------------------------------|
D|----------------------------------------------| 
A|----------------------------------------------|
E|----------------------------------------------|

Rhythm:

e|-------------------------------------------|
B|-------------------------------------------|
G|-5-5-5-5-5-5-------------7-7-7-7-7-7-7-7---|
D|-5-5-5-5-5-5-5-5-5-5-5-5-7-7-7-7-7-7-7-7---| 
A|-3-3-3-3-3-3-5-5-5-5-5-5-5-5-5-5-5-5-5-5---|
E|-------------3-3-3-3-3-3-------------------|

for the first time..

Lead:

e|----------------------------------------------|
B|-5-5-5-5-7-7-7-7------------------------------|
G|----------------------------------------------|
D|----------------------------------------------| 
A|----------------------------------------------|
E|----------------------------------------------|

Rhythm:

e|----------------------------------------------|
B|----------------------------------------------|
G|-----7-7--------------------------------------|
D|-2-2-7-7--------------------------------------| 
A|-2-2-5-5--------------------------------------|
E|-0-0------------------------------------------|

You made a rebel of a careless man’s careful daughter..
You are the best thing...
   
Lead:

e|----------------------------------------------|
B|7-7h8~-3-3\7~---------------------------------|
G|----------------------------------------------|
D|----------------------------------------------| 
A|----------------------------------------------|
E|----------------------------------------------|

Rhythm:

e|-------------------------------------------|
B|-------------------------------------------|
G|-5-5-5-5-5-5-------------7-7-7-7-7-7-7-7---|
D|-5-5-5-5-5-5-5-5-5-5-5-5-7-7-7-7-7-7-7-7---| 
A|-3-3-3-3-3-3-5-5-5-5-5-5-5-5-5-5-5-5-5-5---|
E|-------------3-3-3-3-3-3-------------------|

that’s ever been mine...

Lead&Rhythm: (palm mute)

e|----------------------------------------------|
B|----------------------------------------------|
G|-----7-7--------------------------------------|
D|-2-2-7-7--------------------------------------| 
A|-2-2-5-5--------------------------------------|
E|-0-0------------------------------------------|

Lead&Rhythm:

e|----------------------------------------------|
B|----------------------------------------------|
G|-5~-------------------------------------------|
D|-5~-------------------------------------------| [x3]
A|-3~-------------------------------------------|
E|----------------------------------------------|

Lead:

e|----------------------------------------------|
B|-5h7~-----------------------------------------|
G|----------------------------------------------|
D|----------------------------------------------| 
A|----------------------------------------------|
E|----------------------------------------------|


[Verse 2]

Flash foward...

Rhythm: (palm mute)


e|-------------------------------------------|
B|-------------------------------------------|
G|-5-5-5-5-----------7-7-7-7-7-7-7-7~--------|
D|-5-5-5-5--5-5-5-5--7-7-7-7-7-7-7-7~--------| [x4]
A|-3-3-3-3--5-5-5-5--5-5-5-5-5-5-5-5~--------|
E|----------3-3-3-3--------------------------|

all the world together...

Lead:

e|----------------------------------------------|
B|-7*-7/5~---------------------------------------|
G|----------------------------------------------|
D|----------------------------------------------| 
A|----------------------------------------------|
E|----------------------------------------------|

and there's a drawer....

Rhythm: (palm mute)

e|-------------------------------------------|
B|-------------------------------------------|
G|-5-5-5-5-----------7-7-7-7-7-7-7-7~--------|
D|-5-5-5-5--5-5-5-5--7-7-7-7-7-7-7-7~--------| [x4]
A|-3-3-3-3--5-5-5-5--5-5-5-5-5-5-5-5~--------|
E|----------3-3-3-3--------------------------|

Lead:

e|----------------------------------------------|
B|----------------------------------------------|
G|--7b-7-7/5------------------------------------|
D|----------------------------------------------| 
A|----------------------------------------------|
E|----------------------------------------------|

but we got bills to pay....

Rhythm:

e|-------------------------------------------|
B|-------------------------------------------|
G|-5-5-5-5-----------7-7-7-7-7-7-7-7~--------|
D|-5-5-5-5--5-5-5-5--7-7-7-7-7-7-7-7~--------| [x4]
A|-3-3-3-3--5-5-5-5--5-5-5-5-5-5-5-5~--------|
E|----------3-3-3-3--------------------------|

Lead:

e|----------------------------------------------|
B|----------------------------------------------|
G|-9/7-7~-5-4-4\7-------------------------------|
D|----------------------------------------------| [x2]
A|----------------------------------------------|
E|----------------------------------------------|


[Repeat chorus]


[Chorus 2]

Do you remember, all the city lights on the water...
u saw me start to believe

Lead:

e|-7~-3~-3\5~-----------------------------------|
B|----------------------------------------------|
G|----------------------------------------------|
D|----------------------------------------------| 
A|----------------------------------------------|
E|----------------------------------------------|

Rhythm:

e|-------------------------------------------|
B|-------------------------------------------|
G|-5-5-5-5-5-5-------------7-7-7-7-7-7-7-7---|
D|-5-5-5-5-5-5-5-5-5-5-5-5-7-7-7-7-7-7-7-7---| 
A|-3-3-3-3-3-3-5-5-5-5-5-5-5-5-5-5-5-5-5-5---|
E|-------------3-3-3-3-3-3-------------------|

for the first time..

Lead:

e|----------------------------------------------|
B|-5-5-5-5-7-7-7-7------------------------------|
G|----------------------------------------------|
D|----------------------------------------------| 
A|----------------------------------------------|
E|----------------------------------------------|

Rhythm:

e|----------------------------------------------|
B|----------------------------------------------|
G|-----7-7--------------------------------------|
D|-2-2-7-7--------------------------------------| 
A|-2-2-5-5--------------------------------------|
E|-0-0------------------------------------------|

You made a rebel of a careless man’s careful daughter..
You are the best thing...
   
Lead:

e|-7~-3~-3\5~-----------------------------------|
B|----------------------------------------------|
G|----------------------------------------------|
D|----------------------------------------------| 
A|----------------------------------------------|
E|----------------------------------------------|

Rhythm:

e|-------------------------------------------|
B|-------------------------------------------|
G|-5-5-5-5-5-5-------------7-7-7-7-7-7-7-7---|
D|-5-5-5-5-5-5-5-5-5-5-5-5-7-7-7-7-7-7-7-7---| 
A|-3-3-3-3-3-3-5-5-5-5-5-5-5-5-5-5-5-5-5-5---|
E|-------------3-3-3-3-3-3-------------------|

that’s ever been mine...

Lead&Rhythm:

e|----------------------------------------------|
B|----------------------------------------------|
G|-----7-7--------------------------------------|
D|-2-2-7-7--------------------------------------| 
A|-2-2-5-5--------------------------------------|
E|-0-0------------------------------------------|


[Bridge]

Rhythm:

e|------------------------------------------|
B|------------------------------------------|
G|-5-5-5-5-----------7-7-7-7-7-7-7-7--------|
D|-5-5-5-5--5-5-5-5--7-7-7-7-7-7-7-7--------| [x2]
A|-3-3-3-3--5-5-5-5--5-5-5-5-5-5-5-5--------|
E|----------3-3-3-3-------------------------|

Lead:

e|--10---10--10--10---10--10--10---10~------|
B|--7/8--8---7---7/8--8---7---7/8--7~-------|
G|------------------------------------------|
D|------------------------------------------|
A|------------------------------------------|
E|------------------------------------------|

e|--10---10--10--10---10--10--10----10-----------10--12--10/12v--|
B|--7/8--8---7---7/8--8---7---7/8---10---7h8--10-----------------|
G|---------------------------------------------------------------|
D|---------------------------------------------------------------|
A|---------------------------------------------------------------|
E|---------------------------------------------------------------|

And I remember that fight 2:30 a.m
as everything...

Rhythm: (palm mute)

e|--------------------------------------------------------------|
B|--------------------------------------------------------------|
G|-----------------5-5-5-5-5-5-5-5-7-7-7-7-7-7-7-7-7-7-7--------|
D|-2-2-2-2-2-2-2-2-5-5-5-5-5-5-5-5-7-7-7-7-7-7-7-7-7-7-7--------| [x2]
A|-2-2-2-2-2-2-2-2-3-3-3-3-3-3-3-3-5-5-5-5-5-5-5-5-5-5-5--------|
E|-0-0-0-0-0-0-0-0----------------------------------------------|


Lead:

e|------------------------------------------------------------------------------|
B|------------------------------------------------------------------------------|
G|-9-9--11-11--12-12-12-12--9-9--11-11-12-12-14---11-11-11-11-11-11-------------|   
D|-x-x--x--x---x--x--x--x---x-x--x--x--x--x--x----x--x--x--x--x--x--------------|
A|-7-7--9--9---10-10-10-10--7-7--9--9--10-10-12---9--9--9--9--9--9--------------|
E|------------------------------------------------------------------------------|

e|--------------------------------------|
B|--------------------------------------|
G|-7-7-7-7-7-7-7-7----------------------|   
D|-x-x-x-x-x-x-x-x----------------------| 
A|-5-5-5-5-5-5-5-5----------------------|
E|--------------------------------------|

e|------------------------------------------------------------------------------|
B|------------------------------------------------------------------------------|
G|-9-9--11-11--12-12-12-12--9-9--11-11-12-12-14----11-11------------------------|   
D|-x-x--x--x---x--x--x--x---x-x--x--x--x--x--x-----x--x-------------------------|
A|-7-7--9--9---10-10-10-10--7-7--9--9--10-10-12----9--9-------------------------|
E|------------------------------------------------------------------------------|

e|----------------7---8-8/10v--------------------------------------|
B|---7---8---10----------------------------------------------------|
G|-7---7---7----7---7----------------------------------------------|
D|-----------------------------------------------------------------|
A|-----------------------------------------------------------------|
E|-----------------------------------------------------------------|

Brace myself for the goodbye...

Rhythm:

e|------------------------------------------|
B|------------------------------------------|
G|-5-5-5-5-----------7-7-7-7-7-7-7-7--------|
D|-5-5-5-5--5-5-5-5--7-7-7-7-7-7-7-7--------| [x4]
A|-3-3-3-3--5-5-5-5--5-5-5-5-5-5-5-5--------|
E|----------3-3-3-3-------------------------|

Lead:

e|------------------------------------------|
B|-12\10--8/10v-8---------------------------|
G|----------------9/7-----------------------| [x3]
D|------------------------------------------|
A|------------------------------------------|
E|------------------------------------------|

alone..

Lead:

e|------------------------------------------|
B|-12\10--8/10v-8-7-7/8v--------------------|
G|------------------------------------------| 
D|------------------------------------------|
A|------------------------------------------|
E|------------------------------------------|


[Chorus]

You say: I remember, how we felt sittin’ there, 

Rhythm:

e|-------------------------------------------|
B|-------------------------------------------|
G|-5-5-5-5-5-5-------------7-7-7-7-7-7-7-7---|
D|-5-5-5-5-5-5-5-5-5-5-5-5-7-7-7-7-7-7-7-7---| 
A|-3-3-3-3-3-3-5-5-5-5-5-5-5-5-5-5-5-5-5-5---|
E|-------------3-3-3-3-3-3-------------------|

by the water...

Lead:

e|----------------------------------------------|
B|-10h12-10/8/7---------------------------------|
G|----------------------------------------------|
D|----------------------------------------------| 
A|----------------------------------------------|
E|----------------------------------------------|


and every time I look at you..

Rhythm:

e|----------------------------------------------|
B|----------------------------------------------|
G|-----7-7--------------------------------------|
D|-2-2-7-7--------------------------------------| 
A|-2-2-5-5--------------------------------------|
E|-0-0------------------------------------------|



Lead:

e|---7~-8~-7~-----------------------------------|
B|-8~--------8~---------------------------------|
G|----------------------------------------------|
D|----------------------------------------------| 
A|----------------------------------------------|
E|----------------------------------------------|

I fell in love

Rhythm:

e|------------------------------------------------------------------------|
B|------------------------------------------------------------------------|
G|-5-5-5-5-5-5-------------7-7-7-7-7-7-7-7-7-7-7-7-7-7-7------------------|
D|-5-5-5-5-5-5-5-5-5-5-5-5-7-7-7-7-7-7-7-7-7-7-7-7-7-7-7------------------| 
A|-3-3-3-3-3-3-5-5-5-5-5-5-5-5-5-5-5-5-5-5-5-5-5-5-5-5-5------------------|
E|-------------3-3-3-3-3-3------------------------------------------------|

Lead:

e|----12~---11~-11~-----------------------------|
B|-8--------------------------------------------|
G|----------------------------------------------|
D|----------------------------------------------|[x4] 
A|----------------------------------------------|
E|----------------------------------------------|

That's ever been 
MINE...

Lead:

e|----------------------------------------------|
B|-8~-3~-3\7------------------------------------|
G|----------------------------------------------|
D|----------------------------------------------| 
A|----------------------------------------------|
E|----------------------------------------------|

Rhythm:

e|-------------------------------------------|
B|-------------------------------------------|
G|-5-5-5-5-5-5-------------7-7-7-7-7-7-7-7---|
D|-5-5-5-5-5-5-5-5-5-5-5-5-7-7-7-7-7-7-7-7---| 
A|-3-3-3-3-3-3-5-5-5-5-5-5-5-5-5-5-5-5-5-5---|
E|-------------3-3-3-3-3-3-------------------|


Both guitars:

e|----------------------------------------------|
B|----------------------------------------------|
G|-----7-7--------------------------------------|
D|-2-2-7-7--------------------------------------| 
A|-2-2-5-5--------------------------------------|
E|-0-0------------------------------------------|

Both guitars:

e|-------------------------------------------|
B|-------------------------------------------|
G|-5-5-5-5-5-5-------------7-7-7-7-7-7-7-7---|
D|-5-5-5-5-5-5-5-5-5-5-5-5-7-7-7-7-7-7-7-7---| 
A|-3-3-3-3-3-3-5-5-5-5-5-5-5-5-5-5-5-5-5-5---|
E|-------------3-3-3-3-3-3-------------------|

Lead:

e|---8-7~-3-3\5~----------------------------|
B|-8----------------------------------------|
G|------------------------------------------|
D|------------------------------------------| [x4]
A|------------------------------------------|
E|------------------------------------------|

Rhythm:

e|------------------------------------------|
B|------------------------------------------|
G|-5-5-5-5-----------7-7-7-7-7-7-7-7--------|
D|-5-5-5-5--5-5-5-5--7-7-7-7-7-7-7-7--------| [x4]
A|-3-3-3-3--5-5-5-5--5-5-5-5-5-5-5-5--------|
E|----------3-3-3-3-------------------------|


************************************

| x  Dead note
| h  Hammer-on
| b  Bend
| /  Slide up
| \  Slide down
| ~  Vibrato
| *  Palm Mute
| v  Vibrato

************************************ 

            
            
Suggest correction
Creating personal tab
Creating personal tab
You can edit any tab online and save it as your Personal.

You can edit, replace or remove any tab part or add personal notes – all changes will be seen only by you.

Personal tabs can be accessed anytime from any device, even offline.
Learn more »
Give kudos to tab author, rate the tab!
1 2 3 4 5
comments
print report bad tab
guest
You may want to rate the tab now too:
select rating
Wanna post a correction for this tab? Suggest correction