Oops, an error
Loading. Please wait.

Our Song Tab

version 1
version 1

Solo

Interactive

33,937 views 15 this week
no commentswrite comment
1 2 3 4 5
excellent!
x 7
add to favorites
launch autoscroll
font size
0
reset
how to read this tab
guitar tuner
Tab Pro tools
  • play this tab
  • loop segment
  • change instrument
  • show fretboard
  • metronome
×
Best way to learn
"Our Song"
Autoscroll
slow
fast
+/-
esc
set tempo
stop
Contributor
Since there are only chord versions of Taylor Swift's "Our Song" posted 
here, I decided to post the tabs to the intro, solo, and outro.

Also, here's a video of me playing some Taylor Swift solos, including this one.
This will help you get the technique and rhythm down, so it can only be beneficial
for you to watch it!

http://www.youtube.com/watch?v=AVEcjU-Si5s


Legend: (/) Slide Up  (\) Slide Down  (h) Hammer On  (p) Pull Off  (b) Bend (r) Release
(v) Vibrato

INTRO x2
E|--------0--2p0-------------2p0--2p0-------------2p0--2p0-----3--2--0-----|
B|-----3----------3-------3------------3-------3------------3-----------3--|
G|--2----------------2h4------------------2h4------------------------------|
D|-------------------------------------------------------------------------|
A|-------------------------------------------------------------------------|
E|-------------------------------------------------------------------------|

SOLO
Violin Part
E|----------------------------------------------------|
B|----9h10--9h10p9h10p9-----11h12--11h12p11h12p11-----|
G|-----------------------9-------------------------9--|
D|-/7-------------------------------------------------|
A|----------------------------------------------------|
E|----------------------------------------------------|

E|-------------------------------------------------------|
B|-------------------------------------------------------|
G|--11h12--11p9--10h11--10p9--7--------------------------|
D|-------------------------------9--7--9b10r9--7p5-------|
A|-------------------------------------------------7p5---|
E|-------------------------------------------------------|


Guitar Part
E|-------------------------------------1h2p1-----1-----------------------|
B|---------------------3----------------------3-----3p1-------1----------|
G|-------------------------------------------------------2p0-----2p0-----|
D|--6h7--6--5--5p3--4-----5p3-----------------------------------------2--|
A|-----------------------------5p3--5------------------------------------|
E|-----------------------------------------------------------------------|

E|--------------------------|
B|--------------------------|
G|-------------2v-------6v--|
D|--------------------------|
A|--0--0--3/4------4/7------|
E|--------------------------|

OUTRO
E|--0--2p0----------0--2p0--------------0--2p0----------0--2p0----------5v--|
B|----------3p0-------------3p0-----3v----------3p0-------------3p0---------|
G|---------------2---------------2-------------------2---------------2------|
D|--------------------------------------------------------------------------|
A|--------------------------------------------------------------------------|
E|--------------------------------------------------------------------------|

E|--0--2p0----------0--2p0--------------3--2--0-----|
B|----------3p0-------------3p0-----3v-----------3--|
G|---------------2---------------2------------------|
D|--------------------------------------------------|
A|--------------------------------------------------|
E|--------------------------------------------------|
comments
print report bad tab
I want to post or [tab]
guest
You may want to rate the tab now too:
select rating
Please do not post tabs as comments. Select "correction" instead!