Oops, an error
Loading. Please wait.

Ours Tab

version 1
version 1

Whole song

Interactive

20,957 views 3 this week
2 commentsread comments
1 2 3 4 5
please rate
add to favorites
launch autoscroll
font size
0
reset
how to read this tab
guitar tuner
Tab Pro tools
  • play this tab
  • loop segment
  • change instrument
  • show fretboard
  • metronome
×
Best way to learn
"Ours"
Autoscroll
slow
fast
+/-
esc
set tempo
stop
Contributor
First tab :)  hope you all like it
No capo
http://www.youtube.com/watch?v=0lOVGZRimNU a cover based on her live performance


-OURS-
(by Taylor Swift)


-Intro-
e|-------------------------------------------------------|
B| -1-3-5--1,1-3-5--1,1-3-5-6 --1,1-3-5-1-3-5-1-3-5------|
G|-------------------------------------------------2-0---|
D|-------------------------------------------------------|
A|-------------------------------------------------------|
E|-------------------------------------------------------|

ORRRRR
e|-0---3--0,0---3--0,0---3-5---0,0---3-0---3-0----3----|
B|-1-3-5--1,1-3-5--1,1-3-5-6 --1,1-3-5-1-3-5-1-3-5---1-|
G|-------------------------------------------------2-0-|
D|-----------------------------------------------------|
A|-----------------------------------------------------|
E|-----------------------------------------------------|

Verse
e|---------------------------------------|
B| --1-1-1-1-1/3-3-3-1-1-1-3-5-6-5-------|
G|-0-------------------------------2-0---|
D|---------------------------------------|
A|---------------------------------------|
E|---------------------------------------|
     Elevator buttons and morning air

e|----------------------------------------------------|
B| -1----1----1---1----1/3--3--3--1--------1-3-1-6-5--|
G|----------------------------------------------------|
D|-------------------------------------3--------------|
A|----------------------------------------------------|
E|----------------------------------------------------|
Strangers' silence makes me want to take the stairs

e| --0--0--0--0--1--0---------3--------------|
B|-1-------------------3-1-1---1-------------|
G|-------------------------------------------|
D|-------------------------------------------|
A|-------------------------------------------|
E|-------------------------------------------|
If you were here we'd laugh about their vacant stares

e| -----0----0--------------------------------|
B|-1-3----------3--1--------------------------|
G|--------------------2-----------------------|
D|--------------------------------------------|
A|--------------------------------------------|
E|---------------------3 (? if you want to?)--|
But right now my time is theirs

e|-----------------------------------------------------|
B| ---1-----1-----1-----1---1/3--3--3--1--1-1-3-5-6-5--|
G|-0---------------------------------------------------|
D|-----------------------------------------------------|
A|-----------------------------------------------------|
E|-----------------------------------------------------|
        Seems like there's always someone who disapproves

e|-----------------------------------------0----0-5-3-|
B| -1----1----1---1----1/3--3--3--1--------1-3-1-6-5--|
G|----------------------------------------------------|
D|-------------------------------------3--------------|
A|----------------------------------------------------|
E|----------------------------------------------------|
They'll judge it like they know about me and you

e| -----0--0---0---0-----1-----0------------3-3----|
B|-1/3---------------1------------3-1-1---- 3-3/1--|
G|-------------------------------------------------|
D|-------------------------------------------------|
A|-------------------------------------------------|
E|-------------------------------------------------|
And the verdict comes from those with nothing else to do

e|----------0---0---------1--|
B| -1--1/3--1-------3--1--1--|
G|------------------------2--|
D|---------------------------|
A|---------------------------|
E|---------------------------|
   The jury's out, my choice is you

     -CHORUS-
e|-1------------1----3--------3--|
B|-1------------1----0--------3--|
G|-2------------2----0--------0--|
D|-3------------3----0--------0--|
A|-------------------2--------2--|
E|-------------------3---------3-|
So don't you worry your pretty little mind

e|-0--------3--------3--------0--|
B|-1--------1--------1--------1--|
G|-0--------0--------2--------2--|
D|-2--------2--------2--------2--|
A|-3--------3--------0--------0--|
E|--------------------0--------0-|
People throw rocks at things that shine

e|-1---------- 3--------0-|
B|-1----------3--------1--|
G|-2----------0--------2--|
D|-3----------0--------2--|
A|------------2-----------|
E|------------3-----------|
And life makes love look hard

e|-------------0------3--------3-|
B|-------------1------1--------3-|
G|-------------0------0--------0-|
D|-------------2------2--------0-|
A|-------------3------3--------2-|
E|-------------0---------------3-|
The stakes are high, the water's rough

e|-------------0--------------------|
B|-------------1----0/1-1-1-0/1-1-1-|
G|-------------0--------------------|
D|-------------2--------------------|
A|-------------3--------------------|
E|-------------0--------------------|
But this love is ours

e|--------------------------------------------|
B| ---1--1--1--1--1/3-3--3--1--1--1--3-5-6-5--|
G|-0------------------------------------------|
D|--------------------------------------------|
A|--------------------------------------------|
E|--------------------------------------------|
You never know what people have up their sleeves

e|----------------------------------------------|
B| -1----1----1--1--1/3--3--3--1----1--3-1-6-5--|
G|----------------------------------------------|
D|----------------------------------3-----------|
A|----------------------------------------------|
E|----------------------------------------------|
Ghosts from your past gonna jump out at me

e| --0--0--0--0--1--0-----------3-----0------|
B|-1-------------------3--1--1--------1------|
G|-------------------------------------------|
D|-------------------------------------------|
A|-------------------------------------------|
E|-------------------------------------------|
Lurking in the shadows with their lip gloss smiles

e| -----0----------0---------------------|
B|1-1-3---------------3--1---------------|
G|--------------------------------0------|
D|---------------------------------------|
A|---------------------------------------|
E|---------------------------------------|
But I don't care 'cause right now you're mine

-CHORUS-
e| -/0---------|
B|-3- 3---1----|
G|-------------|
D|-------------|
A|-------------|
E|-------------|
   And you'll say

e|-1------------1----3--------3--|
B|-1------------1----0--------3--|
G|-2------------2----0--------0--|
D|-3------------3----0--------0--|
A|-------------------2--------2--|
E|-------------------3---------3-|
Don't you worry your pretty little mind

e|-0--------3--------3--------0--|
B|-1--------1--------1--------1--|
G|-0--------0--------2--------2--|
D|-2--------2--------2--------2--|
A|-3--------3--------0--------0--|
E|--------------------0--------0-|
People throw rocks at things that shine

e|-1---------- 3--------0-|
B|-1----------3--------1--|
G|-2----------0--------2--|
D|-3----------0--------2--|
A|------------2-----------|
E|------------3-----------|
And life makes love look hard

e|-------------0------3--------3-|
B|-------------1------1--------3-|
G|-------------0------0--------0-|
D|-------------2------2--------0-|
A|-------------3------3--------2-|
E|-------------0---------------3-|
The stakes are high, the water's rough

e|-------------0---|
B|-------------1---|
G|-------------0---|
D|-------------2---|
A|-------------3---|
E|-------------0---|
But this love is ours


e|-0-----3---5------------|
B|-1--3--5---6-5--3--1----|
G|---------------------0--|
D|------------------------|
A|------------------------|
E|------------------------|
And it's not theirs to speculate

e|-5---3----------|
B|-6---5--3/1-----|
G|----------------|
D|----------------|
A|----------------|
E|----------------|
If it's wrong and

e|----------------|
B|-1--1---1---3---|
G|----------------|
D|----------------|
A|----------------|
E|----------------|
Your hands are tough

e|----------------1---1-0----0--|
B|-1--1-------------------3--1--|
G|------2---2-------------------|
D|------------------------------|
A|------------------------------|
E|------------------------------|
But they are where mine belong and

e|-----------------------------|
B|-1--1---1---3--1--1----------|
G|----------------------2----2-|
D|-----------------------------|
A|-----------------------------|
E|-----------------------------|
I'll fight their doubt and give you faith

e|-1-1---0----------------------------|
B| -----------3---1-----1-3-1-3-1---0-|
G|--------------------2-------------0-|
D|------------------------------------|
A|------------------------------------|
E|------------------------------------|
With this song for you

e|---------------------------------5-3---------|
B| ---1--1---1/3--1----1--0---1-------5-1------|
G|-0-------------------------------------------|
D|---------------------------------------------|
A|---------------------------------------------|
E|---------------------------------------------|
'Cause I love the gap between your teeth

e|------------------------------|
B| -1---1---1/3-----1---0-------|
G|------------------------------|
D|-------------------------3----|
A|------------------------------|
E|------------------------------|
And I love the riddles that you speak

e| -----0--0---0---0-----0--1/0-------------3-3-------------|
B|-1/3---------------1------------3-1-1---- 3-3/1-1-1/3-0---|
G|----------------------------------------------------------|
D|----------------------------------------------------------|
A|----------------------------------------------------------|
E|----------------------------------------------------------|
And any snide remarks from my father about your tattoos will be ignored

e|---/0-----------3---|
B| -1-----3--1----3---|
G|----------------0---|
D|----------------0---|
A|----------------2---|
E|----------------3---|
'Cause my heart is yours


e|-1------------1----3--------3--|
B|-1------------1----0--------3--|
G|-2------------2----0--------0--|
D|-3------------3----0--------0--|
A|-------------------2--------2--|
E|-------------------3---------3-|
So don't you worry your pretty little mind

e|-0--------3--------3--------0--|
B|-1--------1--------1--------1--|
G|-0--------0--------2--------2--|
D|-2--------2--------2--------2--|
A|-3--------3--------0--------0--|
E|--------------------0--------0-|
People throw rocks at things that shine

e|-1---------- 3--------0-|
B|-1----------3--------1--|
G|-2----------0--------2--|
D|-3----------0--------2--|
A|------------2-----------|
E|------------3-----------|
And life makes love look hard

e|-1------------1----3--------3--|
B|-1------------1----0--------3--|
G|-2------------2----0--------0--|
D|-3------------3----0--------0--|
A|-------------------2--------2--|
E|-------------------3---------3-|
Don't you worry your pretty little mind

e|-0--------3--------3--------0--|
B|-1--------1--------1--------1--|
G|-0--------0--------2--------2--|
D|-2--------2--------2--------2--|
A|-3--------3--------0--------0--|
E|--------------------0--------0-|
People throw rocks at things that shine

e|-1---------- 3------ 0-3-0-|
B|-1----------3-------1-1-1--|
G|-2----------0-------0-0-2--|
D|-3----------0-------2-2-2--|
A|------------2-------3-3----|
E|------------3--------------|
But they can't take what's ours

e|-1------- 3--------0-|
B|-1-------3--------1--|
G|-2-------0--------2--|
D|-3-------0--------2--|
A|---------2-----------|
E|---------3-----------|
They can't take what's ours

e|-------------0------3--------3-|
B|-------------1------1--------3-|
G|-------------0------0--------0-|
D|-------------2------2--------0-|
A|-------------3------3--------2-|
E|-------------0---------------3-|
The stakes are high, the water's rough

e|-------------0---|
B|-------------1---|
G|-------------0---|
D|-------------2---|
A|-------------3---|
E|-------------0---|
But this love is ours


This is a beautiful and amazing song by Miss. Taylor Swift and i hope that i did it justice <3
comments
We did not receive enough feedback on this tab! Please rate:
print report bad tab
1 2 3 4 5
2 comments total.
0 reply
khristianann14 wrote on January 11 2013, 04:24 pm

what r the chords u play w/it? thank u!

0 reply
iAreGuitar wrote on January 4 2015, 01:43 pm

how do u play it when there are two lines of notes on top of each other?

I want to post or [tab]
guest
You may want to rate the tab now too:
select rating
Please do not post tabs as comments. Select "correction" instead!