Oops, an error
Loading. Please wait.

Outside Tab

version 1
version 1

Whole song

8,872 views 3 this week
1 commentread comment
1 2 3 4 5
1 last vote to show rating
add to favorites
launch autoscroll
font size
0
reset
how to read this tab
guitar tuner
Autoscroll
slow
fast
+/-
esc
set tempo
stop
Help us to improve Ultimate-Guitar.com Take our survey!
×
Author
Capo
1st fret
-----------------------------------------------------------------------
                          The OUTSIDE – Taylor Swift
-----------------------------------------------------------------------
Tabbed by: Steph
Email: clichedplatitude@hotmail.com

Tuning: Capo 1

Intro:
   E B F#m A
e|---------------------------------------------|
B|---------------------------------------------|
G|---------------------------------------------|
D|-4/6-6-6\4-2-1--2/4-4\2-1------1-2-2-7-7-6-2-|
A|--------------------------4--4---------------|
E|---------------------------------------------|

   E B F#m A
e|---------------------------------------------|
B|---------------------------------------------|
G|---------------------------------------------|
D|-4/6-6\4-2-1--2/4-4\2-1------1-2-------------|
A|------------------------4--4-----------------|
E|---------------------------------------------|


Verse:
E        B                 A
I didn’t know what I would find
(A)
When I went looking for a reason, I know
E        B                A
I didn’t read between the lines
(A)                             
And, baby, I’ve got nowhere to go
F#m                           A
I tried to take the road less traveled by
F#m                           A
But nothing seems to work the first few times
B
Am I right?


Chorus:
   E              B
So how can I ever try to be better?
A
Nobody ever lets me in
E                    B
I can still see you, this aint the best view
A      
On the outside looking in
F#m
I’ve been a lot of lonely places
A         B
I’ve never been on the outside

End of chorus riff:
e|--5/7-5/7-4-2-4-----|
B|--------------------|
G|--------------------|
D|--------------------|
A|--------------------|
E|--------------------|


Verse:
E           B                A
You saw me there, but never knew
(A)
I would give it all up to be
E         B               A
A part of this, a part of you
(A) 
And now it’s all too late, so you see
F#m                           A
You could’ve helped if you had wanted to
F#m                  A
But no one notices until it’s too
B
Late to do anything


Chorus:
E              B
How can I ever try to be better?
A
Nobody ever lets me in
E                    B
I can still see you, this aint the best view
A      
On the outside looking in
F#m
I’ve been a lot of lonely places
A         B
I’ve never been on the outside


Interlude: 

  C#m      E  A       B   C#m      E B          A
e|-----------------------------------------------------------|
B|-----------------------------------------------------------|
G|------------2------------------------------------2-4-4/6-4-|
D|---2-2/4-2----2-4/2-4/6----2-2/4-2-------2-2/4-2-----------|
A|-4-----------------------4-----------0-4-------------------|
E|-----------------------------------2-----------------------|


E              B
How can I ever try to be better?
A
Nobody ever lets me in
E                    B
I can still see you, this aint the best view
A      
On the outside looking in
F#m
I’ve been a lot of lonely places
A         B
I’ve never been on the outside


End of chorus riff:
e|--5/7-5/7-4-2-4-----|
B|--------------------|
G|--------------------|
D|--------------------|
A|--------------------|
E|--------------------|

Outro:
E B F#m A
e|---------------------------------------------|
B|---------------------------------------------|
G|---------------------------------------------|
D|-4/6-6-6\4-2-1--2\4-4\2-1------1-2-2-7-7-6-2-|
A|--------------------------4--4---------------|
E|---------------------------------------------|

E B F#m 
e|---------------------------------------------|
B|---------------------------------------------|
G|---------------------------------------------|
D|-4/6-6\4-2-1--2-4-4\2-1----------------------|
A|------------------------4--------------------|
E|---------------------------------------------|



To play with capo on 3:

Chords:
E   =  D
B   =  A
F#m =  Em
A   =  G
C#m =  Bm 


Intro/Outro:
e|-------------------------------------------------|
B|-------------------------------------------------|
G|-------------------------------------0-0---------|
D|--2/4-4-4/2-0---0-2-2/0-----------0------4-0-----|
A|--------------4---------4-2---2-4----------------|
E|-------------------------------------------------|

e|--------------------------------------------------|
B|--------------------------------------------------|
G|--------------------------------------------------|
D|--2/4-4/2-0---0-2-2/0-------(----0)---------------|
A|------------4---------4-2---(2-4--)---------------|
E|--------------------------------------------------|

End of chorus riff:
e|--3/5-3/5-2-0-2-----|
B|--------------------|
G|--------------------|
D|--------------------|
A|--------------------|
E|--------------------|


Interlude:
e|------------------------------------------------------------|
B|------------------------------------------------------------|
G|------------0------------------------------------0-2-2/4-2--|
D|---0-0h2-0----0-2/0-2/4----0-0h2-0-------0-0h2-0------------|
A|-2-----------------------2-------------2--------------------|
E|-----------------------------------0-3----------------------|

Suggest correction
Give kudos to tab author, rate the tab!
1 2 3 4 5
comments
print report bad tab
1 comment total.
0 reply
kitkattz 10 Jun 09, 2008 12:23 AM

this is wrong....?

guest
You may want to rate the tab now too:
select rating
Wanna post a correction for this tab? Suggest correction