Oops, an error
Loading. Please wait.

Picture To Burn Bass Tab

version 1
version 1

Whole song

4,439 views 1 this week
no commentswrite comment
1 2 3 4 5
3 more votes to show rating
add to favorites
launch autoscroll
font size
0
reset
guitar tuner
Autoscroll
slow
fast
+/-
esc
set tempo
stop
Help us to improve Ultimate-Guitar.com Take our survey!
×
Difficulty
novice
Taylor Swift Picture to Burn, standard tuning.

Pretty much the same riff all the way through, I recommend adding in some bass fills to 
it less boring and samey..

Intro
G|-----------------------------|
D|-----------------------------|
A|--------------3--3--5--5-----|    X2
E|--3--3--5--5-----------------|
    1     2     3     4
Verse:

G|-----------------------------|
D|-----------------------------|
A|--------------3--3--5--5-----|    X4
E|--3--3--5--5-----------------|
    1     2     3     4
(On final bar of verse, add this at the end)
G|--------------------------|
D|--------------------------|
A|--3-----------------------|
E|-3------------------------|


Chorus:

G|-----------------------------|
D|-----------------------------|
A|--------------3--3--5--5-----|    X3
E|--3--3--5--5-----------------|
    1     2     3     4
G|-----------------------------|
D|-----------------------------|
A|--------------5--------------|    X1
E|--3--------------------------|


G|-----------------------------|
D|-----------------------------|
A|--------------3--3--5--5-----|    X1
E|--3--3--5--5-----------------|


Back into Verse 2:

G|-----------------------------|
D|-----------------------------|
A|--------------3--3--5--5-----|    X4
E|--3--3--5--5-----------------|

(On final bar of verse, add this at the end)
G|--------------------------|
D|--------------------------|
A|--3-----------------------|
E|-3------------------------|

Chorus 2:

G|-----------------------------|
D|-----------------------------|
A|--------------3--3--5--5-----|    X3
E|--3--3--5--5-----------------|

G|-----------------------------|
D|-----------------------------|
A|--------------5--------------|    X1
E|--3--------------------------|

Solo/Post Chorus

G|-----------------------------|
D|-----------------------------|
A|--------------3--3--5--5-----|    X1
E|--3--3--5--5-----------------|

G|------------------------------------------|
D|------------------------------------------|
A|--------------3--3--5-5-5-5-5-5-5-5-5-----|    X1
E|--3--3--5--5------------------------------|


Bridge:

G|----------------------------------|
D|----------------------------------|
A|--3-3-3-3-3-3-3-3-5-5-5-5-5-5-5-5-|  X2
E|----------------------------------|

Verse 3:

G|-----------------------------|
D|-----------------------------|
A|--------------3--3--5--5-----|    X4
E|--3--3--5--5-----------------|

Chorus 3:

G|-----------------------------|
D|-----------------------------|
A|--------------3--3--5--5-----|    X3
E|--3--3--5--5-----------------|

G|-----------------------------|
D|-----------------------------|
A|--------------5--------------|    X1
E|--3--------------------------|


G|-----------------------------|
D|-----------------------------|
A|--------------3--3--5--5-----|    X2
E|--3--3--5--5-----------------|


Ending:

G|--------------------------------|
D|--------------------------------|
A|----5--3------------------------|    X1
E|----------3---------------------|
Suggest correction
Give kudos to tab author, rate the tab!
1 2 3 4 5
comments
print report bad tab
guest
You may want to rate the tab now too:
select rating
Wanna post a correction for this tab? Suggest correction