Oops, an error
Loading. Please wait.

Ronan Tab

version 1
version 1

Whole song

44,297 views 27 this week
7 commentsread comments
1 2 3 4 5
x 37
add to favorites
launch autoscroll
font size
0
reset
how to read this tab
guitar tuner
Autoscroll
slow
fast
+/-
esc
set tempo
stop
Help us to improve Ultimate-Guitar.com Take our survey!
×
Author
Difficulty
novice
 Here's my take at the picking:) Some parts I hear the high e
being picked, so the C and Am7 chords do change up a bit, only
sometimes. But it still sounds good if you just continue the
same pattern w/o the high e.

****I'm not gonna tab this throughout (at least not now), it just 
repeats. It's simply learning the pattern for each chord, then 
you're good to go:)  If I have enough pm's to tab throughout, 
well you know me, I'll do it, lol! Let me know:)**** 

Have fun:)

          ****Thanks UG member Bncn for the pm about the Am being
               an Am7.  Yep, I was hearing that wrong!****


Standard Tuning 
No Capo


Intro- 
         C             Am7          F 
e|------------------------------------------0-------------|
B|--------1-------------1-------------1-----------1-------|
G|------0---0-0-------0---0-0-------2--2--------2---2-----|
D|-----------2-------------2------3-----3-----------------|
A|----3-------------0-------------------------------------|
E|--------------------------------------------------------|

         C             Am7            F 
e|--------------------------0---------------0-------------|
B|--------1-------------1----1--------1-------------------|
G|------0---0-0-------0---0---------2--2------------------|
D|-----------2--------------------3-----3-----------------|
A|----3-------------0-------------------------------------|
E|--------------------------------------------------------|



Verse-
         C             Am7            F 
e|-------------------------------------------0------------|
B|--------1-------------1-------------1-------------------|
G|------0---0-0-------0---0-0-------2--2------------------|x2
D|-----------2-------------2------3-----3-----------------|
A|----3-------------0-------------------------------------|
E|--------------------------------------------------------|

C               Am7                F 
 I remember you barefeet, down the hallway
                       C
I remember your little laugh
                 Am7
Race cars on the kitchen floor
        F
Plastic dinosaurs, I love you to the moon and-

        C             Am7            F 
e|--------0-------------0-------------------0-------------|
B|----------1-1-----------1-1---------1-------------------|
G|------0----0--------0----0--------2--2------------------|
D|--------------------------------3-----3-----------------|
A|----3-------------0-------------------------------------|
E|--------------------------------------------------------|
                       
C   Am7 F  
Back


         C             Am7           F            C/G
e|-------------------------------------------------------------|
B|--------1-------------1-------------1------------1-----------|
G|------0---0-0-------0---0-0-------2--2----------0-0----------|
D|-----------2-------------2------3-----3------------0---------|x2
A|----3-------------0------------------------------------------|
E|---------------------------------------------3---------------|

C                Am7                F
 I remember your blue eyes, looking into mine
        C/G                C 
Like we had our own secret club
               Am7             F
I remember you dancing before bedtime 
     C/G                     
Then jumping on me waking me-

        C             Am 7          F              C/G
e|--------0-------------0----------------------------------|
B|----------1-1-----------1-1---------1--------------1-----|
G|------0----0--------0----0--------2--2-----------0--0----|
D|--------------------------------3-----3--------------0---|
A|----3-------------0--------------------------------------|
E|----------------------------------------------3----------|
                       
C                         Am7
Up.  I can still feel you hold my hand
F               C/G               
Little man, and even the moment I- 

         C             Am7           F         C/G
e|--------0-------------0------------------------------|
B|----------1-1-----------1-1---------1----------------|
G|------0----0--------0----0--------2--2---------------|
D|--------------------------------3-----3--------------|
A|----3-------------0----------------------------------|
E|---------------------------------------------3-------|

C                                 Am7
Knew.  You fought it hard like an army guy
         F                C/G 
Remember I, leaned in and whispered to you...


    F                C/G           C         F
e|--------------------------------------------------------|
B|--1------1-----------1-----------1------------1---------|
G|--2----2--2--------0--0--------0--0---------2--2--------|
D|--3--------3-----------0-----------0------3-----3-------|
A|--3--------------------------3--------------------------|
E|----------------3---------------------------------------|

F                  C/G                     C      F
 Come on baby with me, we're gonna fly away, from here


      F          C/G           C           Am7           F
e|--------------------------------------------------------------0----|
B|------1----------------------1-------------1-------------1---------|
G|----2--2--------0----------0---0-0-------0---0-0-------2--2--------|
D|--3-----3-----------------------2-------------2------3-----3-------|
A|-------------------------3-------------0---------------------------|
E|-------------3-----------------------------------------------------|

    F        C/G         C    Am7 F
You were, my best, four years




C                Am7                      F
 I remember the drive home when the blind hope 
          C/G                   C
Turned to crying and screaming "Why?"
                       Am7
Flowers pile up in the worst way
             F                   C/G                   C
No one knows what to say about a beautiful boy who died 
                     Am7                    F
And it's about to be Halloween you could be anything 
    C/G                      C
You wanted if you were still here
               Am7             F
I remember the last day when I kissed your face 
    C/G
And whispered in your ear



F                 C/G                     C      F
Come on baby with me, we're gonna fly away, from here
                      C/F                    C                    F
Out of this curtained room and this hospital gray, will just disappear
F                  C/G                     C      F
 Come on baby with me, we're gonna fly away, from here
    F        C/G        C    Am7 F G
You were, my best, four years


C Am7 F 


Bridge-

      F            Am7           C/G           C/G
e|----------------------------------------------------------|
B|------1------------1-------------1-------------1----------|
G|----2--2---------0---0---------0---0---0-----0---0--------|  x3
D|--3-----3------2------2--------------0-------------0------|
A|----------------------------------------------------------|
E|-----------------------------3-------------3--------------|

            F                Am7              C/G          C/G
What if I'm standing in your closet trying to talk to you?
          F                Am7                  C/G   C/G
What if I kept the hand-me-downs you won't grow into?
              F                   Am7           C/G            C/G
And what if I really thought some miracle would see us through?


      F            Am7        C/G          
e|-------------------------------------|
B|------1------------1-----------------|
G|----2--2---------0---0---------------|  
D|--3-----3------2------2--------------|
A|-------------------------------------|
E|-----------------------------3-------|
            F           Am7             C/G -once
What if the miracle was even getting one... moment with you?



F                 C/G                     C      F    F C/G C C
Come on baby with me, we're gonna fly away, from here
F                 C/G                     C      F
Come on baby with me, we're gonna fly away, from here
    F       C/G       C    Am7 F 
You were my best four years


C               Am7                F 
 I remember you barefeet, down the hallway,

  C/G                      
I love you to the moon and back



Have fun!!
cristy♥twilight
Suggest correction
comments
print report bad tab
7 comments total. Showing first comments.
0 reply
cristy♥twilight 5,870 Sep 11, 2012 03:05 PM

Thanks for the pm from Bmcn about the Am actually being an Am7. In the chord version I did, it's definitely an Am when strumming, so I didn't even think twice when tabbing this out. So thanks again:) And hopefully it updates soon!!!

And please don't just rate low; let me know the problem and I'll fix it and give you credit:)

+4 reply
mmalu16 10 Sep 25, 2012 03:13 PM

I love you and your tabs. THEY ARE ALWAYS CORRECT

this song means so much to me and my family and I wanted to learn how to play it for them. Thank you so much for putting the tab up which enables me to learn it =)

0 reply
emmy.cee.x 10 Apr 07, 2013 03:42 PM

hi what is the picking for the
F Am7 C/G
What if I'm standing in your closet trying to talk to you?
F Am7 C/G
What if I kept the hand-me-downs you won't grow into?
F Am7 C/G
And what if I really thought some miracle would see us through?
F Am7 C/G -once
What if the miracle was even getting one... moment with you?
coz i think its different thanks x

guest
You may want to rate the tab now too:
select rating
Wanna post a correction for this tab? Suggest correction