Oops, an error
Loading. Please wait.

Ronan Tab

version 3
version 3

Whole song

3,241 views 1 this week
no commentswrite comment
1 2 3 4 5
x 4
add to favorites
launch autoscroll
font size
0
reset
how to read this tab
guitar tuner
×
Best way to learn
"Ronan"
Autoscroll
slow
fast
+/-
esc
set tempo
stop
Difficulty
intermediate
No Capo. This Tab is an exact representation of the song. Make sure when you play it you 
have the timing right or it will sound off.

Intro:       C             Am7            Fsus2
e|------------------------------------------0-----------|
B|--------1---1---------1---1-----------1---1-----1-----|
G|----------0-------------0-----------0---0---------0---|
D|------2-------------2-------------3-----------3-------|
A|----3-------------0-----------------------------------|
E|------------------------------------------------------|


Verse:       C             Am7            Fsus2        G
e|----------------------------------------------------------|
B|--------1---1---------1---1-----------1---1---------1---1-|
G|----------0-------------0-----------0---0-------------0---|
D|------2-------------2-------------3---------------0-------|
A|----3-------------0---------------------------------------|
E|------------------------------------------------3---------|

Chorus:   FMaj7           G          C
e|----------0------0------3----3-----0------------------|
B|----------1------1------0----0-----1------------------|
G|----------2------2------0----0-----0--------0---------|
D|----------3------3------0----0-----2--0--2-----2--0---|
A|----------3------3------2----2-----3------------------|
E|------------------------3----3------------------------|

   FMaj7                         G
e|---0------0---------0----0-----3---------------------|
B|---1--------1---1---1----1-----0---------------------|
G|---2----2-----2-----2----2-----0---------------------|
D|---3----------------3----3-----0---------------------|
A|---3----------------3----3-----2---------------------|
E|-------------------------------3---------------------|
* one down strum for each chord shown

Bridge:
Use strumming pattern for these chords:
Progression: (FMaj7-Am-G-G-FMaj7-C-G-G)X2
Strumming Pattern: /&//\ (key: /= downstrum, \= upstrum, &= skip beat)


Thanks everyone!
Suggest correction
comments
print report bad tab
guest
You may want to rate the tab now too:
select rating
Wanna post a correction for this tab? Suggest correction