Oops, an error
Loading. Please wait.

Run Tab

4,175 views 1 this week
2 commentsread comments
1 2 3 4 5
please rate
add to favorites
launch autoscroll
font size
0
reset
how to read this tab
guitar tuner
Autoscroll
slow
fast
+/-
esc
set tempo
stop
Help us to improve Ultimate-Guitar.com Take our survey!
×
Author
Capo first fret
Cadd 9
--------------------------------------------------------------|
-------3-------3-------3--------------3-------3-------3-------|
--0------0-------0-------0-------0------0-------0-------0-----|
----2------2-------2-------2-------2------2-------2-------2---|
3------------------------------3------------------------------|
--------------------------------------------------------------|


-------------------------------------------0--0h1--|
-------3-------3-------3--------------3------------|
--0------0-------0-------0-------0------0----------|
----2------2-------2-------2-------2---------------|
3------------------------------3-------------------|
---------------------------------------------------|
Suggest correction
Give kudos to tab author, rate the tab!
1 2 3 4 5
comments
print report bad tab
2 comments total.
0 reply
samashx13 36 wrote on March 16 2010, 09:24 pm

Sorry, its actually 0h3 at the end not 0h1

0 reply
melissarose 10 wrote on September 6 2012, 12:26 pm

Sounds to me like it's 0h2 at the end!
The rest sounds brilliant, thanks (:

guest
You may want to rate the tab now too:
select rating
Please do not post tabs as comments. Select "correction" instead!