Oops, an error
Loading. Please wait.

Sad Beautiful Tragic intro tab

version 1
version 1

Intro

Whole song

Interactive

4,295 views 12 this week
2 commentsread comments
1 2 3 4 5
x 7
add to favorites
×
Save as Personal and add changes to this tab that will be seen only by you. Learn more ›
×
You can save this tab as Personal to edit and correct it or add notes. All changes will be seen only by you. Learn more »
launch autoscroll
font size
0
reset
how to read this tab
guitar tuner
edit
Autoscroll
slow
fast
+/-
esc
set tempo
stop
e|-2-3--2-3--2-3--5-3-----3----3----3------|
B|---------------------3-1--3-1--3-1-------|
G|-----------------------------------------|
D|-----------------------------------------|    x2
A|-----------------------------------------|
E|-----------------------------------------|

First tab, pretty sure this is correct :)

            
            
Suggest correction
Creating personal tab
Creating personal tab
You can edit any tab online and save it as your Personal.

You can edit, replace or remove any tab part or add personal notes – all changes will be seen only by you.

Personal tabs can be accessed anytime from any device, even offline.
Learn more »
comments
print report bad tab
2 comments total.
+3 reply
6stringlover 10 Nov 27, 2012 12:47 AM

The part where it goes
e|----3----3----3------|
B|--3-1--3-1--3-1------|
G|---------------------|
D|---------------------|
A|---------------------|
E|---------------------|

should go like this
e|-------3------3-------3------|
B|--1-0----1-0-----1-0---------|
G|-----------------------------|
D|-----------------------------|
A|-----------------------------|
E|-----------------------------|

sounds more accurate for me

0 reply
Emilor Swang 10 Mar 26, 2013 05:49 AM

yeah I think she is right it should be like
e|-------3------3-------3------|
B|--1-0----1-0-----1-0---------|
G|-----------------------------|
D|-----------------------------|
A|-----------------------------|
E|-----------------------------|

to me

guest
Wanna post a correction for this tab? Suggest correction