Oops, an error
Loading. Please wait.

Sad Beautiful Tragic Tab

version 1
version 1

Whole song

Interactive

9,164 views 24 this week
4 commentsread comments
1 2 3 4 5
accurate
x 11
add to favorites
launch autoscroll
font size
0
reset
how to read this tab
guitar tuner
Tab Pro tools
  • play this tab
  • loop segment
  • change instrument
  • show fretboard
  • metronome
×
Best way to learn
"Sad Beautiful Tragic"
Autoscroll
slow
fast
+/-
esc
set tempo
stop
Contributor
Difficulty
novice
Standard Tuning
No Capo

Intro:

e|-2-3--2-3--2-3--5-3-2----3----3----3------|
B|----------------------1-0--1-0--1-0-------|
G|------------------------------------------|
D|------------------------------------------|     x2
A|------------------------------------------|
E|------------------------------------------|


Verse 1:
G D Am C x4


Chorus:
G D Am C x2 or

e|-2-3--2-3--2-3--5-3-2----3----3----3------|
B|----------------------1-0--1-0--1-0-------|
G|------------------------------------------|
D|------------------------------------------|     x2
A|------------------------------------------|
E|------------------------------------------|

 
G D Am C    or

e|-2-3--2-3--7-5--2-3-----3----3-----------|
B|---------------------1-0--1-0--1---------|
G|-----------------------------------2-----|
D|-----------------------------------------|     x1
A|-----------------------------------------|
E|-----------------------------------------|


Verse 2: 
G D Am C x4


Chorus:
G D Am C x2 or

e|-2-3--2-3--2-3--5-3-2----3----3-----------|
B|----------------------1-0--1-0--1---------|
G|------------------------------------------|
D|------------------------------------------|     x2
A|------------------------------------------|
E|------------------------------------------|


G D Am C or

e|-7-7-7-7-7-7-7h5--5-5-5-3--3--3-5--------|
B|-----------------------------------------|
G|-----------------------------------------|
D|-----------------------------------------|     x1
A|-----------------------------------------|
E|-----------------------------------------|



Bridge:
Am C G D x2
Am* G* C* C* (*once)

G

Chorus 2:
G D Am C x6

G*



Not 100% the way the song goes but pretty darn close :) please rate

comments
print report bad tab
4 comments total. Showing first comments.
0 reply
Mnstrk wrote on June 30 2013, 07:33 pm

I think that you'll need the capo, the chords in the song are G#, D#, A#m, C#. The tabs are good.

+1 reply
Mnstrk wrote on June 30 2013, 07:36 pm

e|-3-4--3-4--3-4--6-4-----4----4----4------|
B|---------------------2-1--2-1--2-1-------|
G|-----------------------------------------|
D|-----------------------------------------| x2
A|-----------------------------------------|
E|-----------------------------------------|

Check this out. ;)

0 reply
hey-youngblood wrote on December 14 2013, 12:24 am

Great tab, imo, though i think every time there's a bit similar to this:

***
e|-2-3--2-3--2-3--5-3-----3----3----3------|
B|---------------------1-0--1-0--1-0-------|
G|-----------------------------------------|
D|-----------------------------------------|
A|-----------------------------------------|
E|-----------------------------------------|

that after the 5-3 bit, it goes to the second fret on the high e string before hitting the first fret on the B string. just an opinion!

I want to post or [tab]
guest
You may want to rate the tab now too:
select rating
Please do not post tabs as comments. Select "correction" instead!