Oops, an error
Loading. Please wait.

Safe And Sound Chords

version 2
version 2

Interactive

673,273 views 831 this week
7 commentsread comments
1 2 3 4 5
x 100
add to favorites
launch autoscroll
font size
0
reset
transpose
0
reset
display chords
guitar tuner
Autoscroll
slow
fast
+/-
esc
set tempo
stop
Help us to improve Ultimate-Guitar.com Take our survey!
×
Author
Tuning
Capo
E A D G B E
5th fret
Capo on 5  (As someone pointed out, the song is accurately played on the 7th
fret, but for singing purposes it sounds better on the 5th, ...for some :)

Verses: Dm / Am / F/ C
Chorus: F / C / G


[Intro]

 (play 2x for intro and through verses)

e|-------0h1-1--------------1---------------------------|
B|-------3----------1-------1------------------------1--|
G|-----2------------2-------0h2-2-2-0---0--------0------|x2
D|---0-----------2--2-------3-----------0h2--2----------|
A|-------------0------------3-----------3------3---3----|
E|--------------------------x---------------------------|


[Verse]

Dm                          Am
I remember tears streaming down your face
        F                      C   G
When I said, I'll never let you go
  Dm                       Am             F      C
When all those shadows almost killed your light
  Dm        Am              F             C    G
I remember you said, Don't leave me here alone
  Dm                     Am               F      pause
But all that's dead and gone and passed tonight


[Chorus]

F                   C
  Just close your eyes
     G             F
The sun is going down
            C
You'll be alright
    G               F
No one can hurt you now
               C
Come morning light
G                Am   G    F
You and I'll be safe and sound


[Riff]

e|-------0h1-1--------------1---------------------------|
B|-------3----------1-------1------------------------1--|
G|-----2------------2-------0h2-2-2-0---0--------0------|x2
D|---0-----------2--2-------3-----------0h2--2----------|
A|-------------0------------3-----------3------3---3----|
E|--------------------------x---------------------------|


[Verse]

Dm              Am                     F
Don't you dare look out your window darling
                 C   G
Everything's on fire
Dm                   Am                F     C
The war outside our door keeps raging on
Dm      Am     F     C   G
Hold onto this lullaby
Dm            Am        F       F
Even when the music's gone    gone


[Chorus]

F                   C
  Just close your eyes
     G             F
The sun is going down
            C
You'll be alright
    G               F
No one can hurt you now
               C
Come morning light
G                Am   G    F
You and I'll be safe and sound


[Bridge]

F         C         Am         Dm
Ooooh    Oooooh     Ahhhhh    Ahhhhhh
F         C         Am         Dm
Ooooh    Oooooh     Ahhhhh    Ahhhhhh


[Chorus]

(This last chorus is picked... so you can play it like this or with the chords)
e|-------------------------------------------------|
B|--1---1---1---1-----1---1----3-------------------|
G|--2---2---2---2-----0-----0--0----------0--------|
D|--3--3---3---3---3--2--2-----0--0-----0----------|
A|--3-----------------3-------------0h2------------|
E|-----------------------------3-------------------|
                       OR
e|-------------------------------------------------|
B|--1---1---1---1-----1---1----3-----3-------------|
G|--2---2---2---2-----0-----0--0-----0-------------|
D|--3--3---3---3---3--2--2-----0--0--0--0----------|
A|--3-----------------3--------------2-------------|
E|-----------------------------3-------------------|

F                   C     G
  Just close your eyes
F               C     G
  You'll be alright
F                C
  Come morning light,
G                Am   G    F
You and I'll be safe and sound...


************************************
/ x   Dead note
/ h   Hammer-on
************************************
Suggest correction
comments
print report bad tab
7 comments total. Showing first comments.
+1 reply
GuitarChick97 10 Jan 12, 2012 03:28 PM

I really like this version of the song, it sounds the most accurate out of all the other chords I've found. I was wondering if you might be able to do the chords for the 'ooh ooh ah' etc. parts between the second chorus and bridge and then again at the end of the song. If you don't want to/can't, I totally understand. Thanks so much! :)

+3 reply
mindystanley 72 Jan 15, 2012 12:14 AM

The capo is on the wrong fret. It should be a capo on the 7th fret for these chords.

+1 reply
carolinepaige44 143 Apr 15, 2012 10:35 PM

at the last part of the chorus when she says "safe and sound", i think the correct chords are Am then F instead of F then Am

guest
You may want to rate the tab now too:
select rating
Wanna post a correction for this tab? Suggest correction