Oops, an error
Loading. Please wait.
We have an official Sparks Fly tab made by UG professional guitarists. Check out the tab »
×
3,766 views 1 this week
no commentswrite comment
1 2 3 4 5
2 more votes to show rating
add to favorites
×
Save as Personal and add changes to this tab that will be seen only by you. Learn more ›
×
You can save this tab as Personal to edit and correct it or add notes. All changes will be seen only by you. Learn more »
launch autoscroll
font size
0
reset
guitar tuner
edit
Autoscroll
slow
fast
+/-
esc
set tempo
stop
Intro 
G|-----------------------------------------------------------------|
D|-----------------------------------------------------------------|
A|---------------------------------------------------3-3-3-3-3-3---|
D|-----------------------------------------------\-\-----------/-\-|
   1 + 2 + 3 + 4 + 1 + 2 + 3 + 4 + 1 + 2 + 3 + 4 + 1 + 2 + 3 + 4 +

G|-----------------------------------------------------------------|
D|-----------------------------------------------------------------|
A|-5-5-5-5-5-5-5-5-----------------8-8-8-8-8-8-8-\-3-3-3-3-3-3-3-3-|
D|-----------------8-8-8-8-8-8-8-8---------------------------------|
   1 + 2 + 3 + 4 + 1 + 2 + 3 + 4 + 1 + 2 + 3 + 4 + 1 + 2 + 3 + 4 +

Verse
G|-----------------------------------------------------------------|
D|-----------------------------------------------------------------|
A|-5-------5-----------------------8-------8---\---3-------3---3---|
D|-----------------8-------8-----------------------------5---5-----|
   1 + 2 + 3 + 4 + 1 + 2 + 3 + 4 + 1 + 2 + 3 + 4 + 1 + 2 + 3 + 4 +

G|-----------------------------------------------------------------|
D|-----------------------------------------------------------------|
A|-5-------5-----------------------8-------8---\---3-------3-3---3-|
D|-----------------8-------8-----------------------------5-----5---|
   1 + 2 + 3 + 4 + 1 + 2 + 3 + 4 + 1 + 2 + 3 + 4 + 1 + 2 + 3 + 4 +

Pre-Chorus
G|-----------------------------------------------------------------|
D|-----------------------------------------------------------------|
A|-1-------1-------3-------3-3---3-8-----3-8---8-\-5-----5-5-5-5-5-|
D|-----------------------------------------------------------------|
   1 + 2 + 3 + 4 + 1 + 2 + 3 + 4 + 1 + 2 + 3 + 4 + 1 + 2 + 3 + 4 +

G|-----------------------------------------------------------------|
D|-----------------------------------------------------------------|
A|-1-----1-1-------1-----1-1---1---3-----3-3-3-3-3-3---------------|
D|-----------------------------------------------------------------|
   1 + 2 + 3 + 4 + 1 + 2 + 3 + 4 + 1 + 2 + 3 + 4 + 1 + 2 + 3 + 4 +

Chorus
G|-----------------------------------------------------------------------|
D|-----------------------------------------------------------------------|
A|-----------------------------------------------------------------------|
D|-0-0-0-0-0-0-0-0-8-8-8-8-8-8-8-8-3-3-3-3-3-3-3-3-10-10-10-10-10-10-5-3-|
   1 + 2 + 3 + 4 + 1 + 2 + 3 + 4 + 1 + 2 + 3 + 4 + 1  +  2  +  3  +  4 +

G|----------------------------------------------------------------------|
D|----------------------------------------------------------------------|
A|----------------------------------------------------------------------|
D|-0-0-2-2-3-3-7-7-8-8-8-8-8-8-8-8-3-3-3-3-3-3-3-3---10-10-10-10-10-5-3-|
   1 + 2 + 3 + 4 + 1 + 2 + 3 + 4 + 1 + 2 + 3 + 4 + 1 +  2  +  3  +  4 +

G|-----------------------------------------------------------------------|
D|-----------------------------------------------------------------------|
A|-----------------------------------------------------------------------|
D|-0-0-0-0-0-0-0-0-8-8-8-8-8-8-8-8-3-3-3-3-3-3-3-3-10-10-10-10-10-10-5-3-|
   1 + 2 + 3 + 4 + 1 + 2 + 3 + 4 + 1 + 2 + 3 + 4 + 1  +  2  +  3  +  4 +

G|-------------------------------------------------------------------------|
D|-------------------------------------------------------------------------|
A|-------------------------------------------------------------------------|
D|-0-0-2-2-3-3-7-7-8-8-8-8-8-8-8-8-3-3-3-3-3-3-3-3---10-10-10-10-10-10-12\-|
   1 + 2 + 3 + 4 + 1 + 2 + 3 + 4 + 1 + 2 + 3 + 4 + 1 +  2  +  3  +  4  +

Interlude
G|-----------------------------------------------------------------|
D|-----------------------------------------------------------------|
A|-5-5-5-5-5-5-5-5-----------------8-8-8-8-8-8-8-\-3-3-3-3-3-3-3-3-|
D|-----------------8-8-8-8-8-8-8-8---------------------------------|
   1 + 2 + 3 + 4 + 1 + 2 + 3 + 4 + 1 + 2 + 3 + 4 + 1 + 2 + 3 + 4 +

Verse
G|-----------------------------------------------------------------|
D|-----------------------------------------------------------------|
A|---------------------------------8-------8---\---3-------3---3---|
D|-------------------------------------------------------5---5-----|
   1 + 2 + 3 + 4 + 1 + 2 + 3 + 4 + 1 + 2 + 3 + 4 + 1 + 2 + 3 + 4 +

G|-----------------------------------------------------------------|
D|-----------------------------------------------------------------|
A|-5-------5-----------------------8-------8---\---3-------3-3---3-|
D|-----------------8-------8-----------------------------5-----5---|
   1 + 2 + 3 + 4 + 1 + 2 + 3 + 4 + 1 + 2 + 3 + 4 + 1 + 2 + 3 + 4 +

Pre-Chorus
G|-----------------------------------------------------------------|
D|-----------------------------------------------------------------|
A|-1-------1-------3-------3-3---3-8-----3-8---8-\-5-----5-5-5-5-3-|
D|-----------------------------------------------------------------|
   1 + 2 + 3 + 4 + 1 + 2 + 3 + 4 + 1 + 2 + 3 + 4 + 1 + 2 + 3 + 4 +

G|-----------------------------------------------------------------|
D|-----------------------------------------------------------------|
A|-1-----1-1-------1-----1-1---1---3-3-3-3-3-3-3-3-3-3-3-\---------|
D|-----------------------------------------------------------------|
   1 + 2 + 3 + 4 + 1 + 2 + 3 + 4 + 1 + 2 + 3 + 4 + 1 + 2 + 3 + 4 +

Chorus
G|-----------------------------------------------------------------------|
D|-----------------------------------------------------------------------|
A|-----------------------------------------------------------------------|
D|-0-0-0-0-0-0-0-0-8-8-8-8-8-8-8-8-3-3-3-3-3-3-3-3-10-10-10-10-10-10-5-3-|
   1 + 2 + 3 + 4 + 1 + 2 + 3 + 4 + 1 + 2 + 3 + 4 + 1  +  2  +  3  +  4 +

G|----------------------------------------------------------------------|
D|----------------------------------------------------------------------|
A|----------------------------------------------------------------------|
D|-0-0-2-2-3-3-7-7-8-8-8-8-8-8-8-8-3-3-3-3-3-3-3-3---10-10-10-10-10-5-3-|
   1 + 2 + 3 + 4 + 1 + 2 + 3 + 4 + 1 + 2 + 3 + 4 + 1 +  2  +  3  +  4 +

G|-----------------------------------------------------------------------|
D|-----------------------------------------------------------------------|
A|-----------------------------------------------------------------------|
D|-0-0-0-0-0-0-0-0-8-8-8-8-8-8-8-8-3-3-3-3-3-3-3-3-10-10-10-10-10-10-5-3-|
   1 + 2 + 3 + 4 + 1 + 2 + 3 + 4 + 1 + 2 + 3 + 4 + 1  +  2  +  3  +  4 +

G|-------------------------------------------------------------------------|
D|-------------------------------------------------------------------------|
A|-------------------------------------------------------------------------|
D|-0-0-2-2-3-3-7-7-8-8-8-8-8-8-8-8-3-3-3-3-3-3-3-3---10-10-10-10-10-10-12\-|
   1 + 2 + 3 + 4 + 1 + 2 + 3 + 4 + 1 + 2 + 3 + 4 + 1 +  2  +  3  +  4  +

Interlude
G|-----------------------------------------------------------------|
D|-----------------------------------------------------------------|
A|-5-5-5-5-5-5-5-5-----------------8-8-8-8-8-8-8-\-3-3-3-3-3-3-3-3-|
D|-----------------8-8-8-8-8-8-8-8---------------------------------|
   1 + 2 + 3 + 4 + 1 + 2 + 3 + 4 + 1 + 2 + 3 + 4 + 1 + 2 + 3 + 4 +

Bridge
G|--------------------------------------------------------------------------|
D|o------------------------------------------------------------------------o|
A|o-5---5---5---5----------------------------------------------------------o|
D|----------------7-8---8---8---8-7-3---3---3---3-----10-10-10-10-10-10-10--|
    1 + 2 + 3 + 4 + 1 + 2 + 3 + 4 + 1 + 2 + 3 + 4 + 1 +  2  +  3  +  4  +

G|-----------------------------------------------------------------|
D|-----------------------------------------------------------------|
A|-5-5-5-5-5-5-5-5-----------------8-8-8-8-8-8-8-\-3-3-3-3-3-3-3-3-|
D|-----------------8-8-8-8-8-8-8-8---------------------------------|
   1 + 2 + 3 + 4 + 1 + 2 + 3 + 4 + 1 + 2 + 3 + 4 + 1 + 2 + 3 + 4 +

G|-----------------------------------------------------------------|
D|-----------------------------------------------------------------|
A|-5-------------------------------8---------------3---------------|
D|-----------------8-----------------------------------------------|
   1 + 2 + 3 + 4 + 1 + 2 + 3 + 4 + 1 + 2 + 3 + 4 + 1 + 2 + 3 + 4 +

Chorus
G|-----------------------------------------------------------------|
D|-----------------------------------------------------------------|
A|-------------------------------------------------------------1-/-|
D|-----------------------------------------------------------------|
   1 + 2 + 3 + 4 + 1 + 2 + 3 + 4 + 1 + 2 + 3 + 4 + 1 + 2 + 3 + 4 +

G|--------------------------------------------------------------------------|
D|-------3---------------------------------10-10----------------------------|
A|-5---------5---1---3---5---3-----8-8-8-8-------8-8------------------------|
D|-----------------------------------------------------10-10-10-10-10-10-10-|
   1 + 2 + 3 + 4 + 1 + 2 + 3 + 4 + 1 + 2 + 3  +  4 + 1 +  2  +  3  +  4  +

G|-----------------------------------------------------------------------|
D|-----------------------------------------------------------------------|
A|-----------------------------------------------------------------------|
D|-0-0-0-0-0-0-0-0-8-8-8-8-8-8-8-8-3-3-3-3-3-3-3-3-10-10-10-10-10-10-5-3-|
   1 + 2 + 3 + 4 + 1 + 2 + 3 + 4 + 1 + 2 + 3 + 4 + 1  +  2  +  3  +  4 +

G|-------------------------------------------------------------------------|
D|-------------------------------------------------------------------------|
A|-------------------------------------------------------------------------|
D|-0-0-2-2-3-3-7-7-8-8-8-8-8-8-8-8-3-3-3-3-3-3-3-3---10-10-10-10-10-10-12\-|
   1 + 2 + 3 + 4 + 1 + 2 + 3 + 4 + 1 + 2 + 3 + 4 + 1 +  2  +  3  +  4  +

Outro
G|-----------------------------------------------------------------|
D|-----------------------------------------------------------------|
A|-5-5-5-5-5-5-5-5-----------------8-8-8-8-8-8-8-\-3-3-3-3-3-3-3-3-|
D|-----------------8-8-8-8-8-8-8-8---------------------------------|
   1 + 2 + 3 + 4 + 1 + 2 + 3 + 4 + 1 + 2 + 3 + 4 + 1 + 2 + 3 + 4 +

G|-------------------------------------------------------------------|
D|-------------------------------------------------------------------|
A|-5-5-5-5-5-5-5-5-----------------8-8-8-8-8-8-8-\-3---3---3-3-3-3/5-|
D|-----------------8-8-8-8-8-8-8-8-----------------------------------|
   1 + 2 + 3 + 4 + 1 + 2 + 3 + 4 + 1 + 2 + 3 + 4 + 1 + 2 + 3 + 4 + 1

Tabbed By Jack Mills

            
            
Suggest correction
Creating personal tab
Creating personal tab
You can edit any tab online and save it as your Personal.

You can edit, replace or remove any tab part or add personal notes – all changes will be seen only by you.

Personal tabs can be accessed anytime from any device, even offline.
Learn more »
Give kudos to tab author, rate the tab!
1 2 3 4 5
comments
print report bad tab
guest
You may want to rate the tab now too:
select rating
Wanna post a correction for this tab? Suggest correction