Oops, an error
Loading. Please wait.

Sparks Fly Tab

version 2
version 2

Whole song

17,669 views 6 this week
no commentswrite comment
1 2 3 4 5
excellent!
x 4
add to favorites
launch autoscroll
font size
0
reset
how to read this tab
guitar tuner
Autoscroll
slow
fast
+/-
esc
set tempo
stop
Help us to improve Ultimate-Guitar.com Take our survey!
×
Author
-----------------------------------------------------------------------------
                             SPARKS FLY - Taylor Swift
-----------------------------------------------------------------------------
Tabbed by: yizhan123
Note: Each ---- is a beat. -- is half a beat. If 2 notes are played in
      one beat interval, it would be X----X. It has ---- between it.
      If a note is played between 2 notes within one beat, it would be
      X--X--X. It has -- between it, which determines each half beat.

Tuning: STANDARD

e|--1----1-- --1--1/3--1----1-- --1--1/3--1----1-- --1--1/3--0----1----3--/5\3-|
B|----------3------------------3------------------1----------------------------|
G|-----------------------------------------------------------------------------|
D|-----------------------------------------------------------------------------|
A|-----------------------------------------------------------------------------|
E|-----------------------------------------------------------------------------|

e|--1----1-- --1--1/3--1----1-- --1--1/3--1----1-- --1--1/3--0----1----3--3/5\3-|
B|----------3------------------3------------------1-----------------------------|
G|------------------------------------------------------------------------------|
D|------------------------------------------------------------------------------|
A|------------------------------------------------------------------------------|
E|------------------------------------------------------------------------------|


e|--1-------------------------------------------------------------------------|
B|-----3----------------------------------------------------------------------|
G|----------------------------------------------------------------------------|
D|----------------------------------------------------------------------------|
A|----------------------------------------------------------------------------|
E|----------------------------------------------------------------------------|



************************************

 /   slide up
 \   slide down

************************************
Suggest correction
comments
print report bad tab
guest
You may want to rate the tab now too:
select rating
Wanna post a correction for this tab? Suggest correction