Oops, an error
Loading. Please wait.

Sparks Fly Tab

version 2
version 2

Whole song

24,744 views 51 this week
1 commentread comment
1 2 3 4 5
x 10
add to favorites
launch autoscroll
font size
0
reset
how to read this tab
guitar tuner
Autoscroll
slow
fast
+/-
esc
set tempo
stop
Help us to improve Ultimate-Guitar.com Take our survey!
×
Difficulty
intermediate
Tuning: Standar (No capo)

Legend: (/) Slide Up  (\) Slide Down  (h) Hammer On  (p) Pull Off  (b) Bend 
(v) Vibrato

Intro:

e|-------------------------------------------------------------------|
B|-6-6---6-6\8-6---6---6-6\8-6---6---6-6\8-5-6-8-10-8-6--------------|
G|-----7-------------7-------------7---------------------------------|
D|-------------------------------------------------------------------|
A|-------------------------------------------------------------------|
E|-------------------------------------------------------------------|

e|-------------------------------------------------------------------|
B|-6-6---6-6\8-6---6---6-6\8-6---6---6-6\8-5-6-8-10-8-6--------------|
G|-----7-------------7-------------7--------------------7v-----------|
D|-------------------------------------------------------------------|
A|-------------------------------------------------------------------|
E|-------------------------------------------------------------------|

Verse:

The way you move is like a full on rainstorm
and I'm a house of cards
You're the kind of rekeless
That should send me runnig but I....


e|-------------------------------------------------------------------|
B|------------------------------------10-10\11v----------------------|
G|--7h10---10h12---12h14---10h12--7v--------------12v----------------|
D|-------------------------------------------------------------------|
A|-------------------------------------------------------------------|
E|-------------------------------------------------------------------|

Chorus:

Drop everything now...

e|-------------------------------------------------------------------|
B|-------------------------------------------------------------------|
G|---7-------------10------------------------------------------------|
D|---7-x8---8------10-x8---10----------------------------------------|
A|---5------8-x8---8-------10-x8-------------------------------------|
E|----------6--------------8-----------------------------------------|

'cause I see, sparks fly whenever you smile...

e|-------------------------------------------------------------------|
B|-------------------------------------------------------------------|
G|--------------------------------------10---------------------------|
D|--------------------------------------10x8---10--------------------|
A|---5-5-7-7-8-8-----1-1-3-3-5-5-3-3----8------10-x8-----------------|
E|---------------5-5---------------------------8---------------------|

Get me with those green eyes, baby...

e|-------------------------------------------------------------------|
B|-------------------------------------------------------------------|
G|---7-------------10------------------------------------------------|
D|---7-x8---8------10-x8---10----------------------------------------|
A|---5------8-x8---8-------10-x8-------------------------------------|
E|----------6--------------8-----------------------------------------|

'cause I see, sparks fly whenever you smile...

e|-------------------------------------------------------------------|
B|-------------------------------------------------------------------|
G|--------------------------------------10---------------------------|
D|--------------------------------------10x8---10--------------------|
A|---5-5-7-7-8-8-----1-1-3-3-5-5-3-3----8------10-x8-----------------|
E|---------------5-5---------------------------8---------------------|

Intro:

e|-------------------------------------------------------------------|
B|-6-6---6-6\8-6---6---6-6\8-6---6---6-6\8-5-6-8-10-8-6--------------|
G|-----7-------------7-------------7---------------------------------|
D|-------------------------------------------------------------------|
A|-------------------------------------------------------------------|
E|-------------------------------------------------------------------|

e|-------------------------------------------------------------------|
B|-6-6---6-6\8-6---6---6-6\8-6---6---6-6\8-5-6-8-10-8-6--------------|
G|-----7-------------7-------------7--------------------7v-----------|
D|-------------------------------------------------------------------|
A|-------------------------------------------------------------------|
E|-------------------------------------------------------------------|

Verse 2:

My mind forgets to remind me...
You're a...

e|-------------------------------------------------------------------|
B|-------------------------------------------------------------------|
G|--------10---------10--------------------------------7-------7-----|
D|-----10----10---10----10------10---------10--------7---7---7---7---|
A|---8----------8------------10----10---10----10---5-------5---------|
E|-------------------------8----------8------------------------------|

e|-------------------------------------------------------------------|
B|-------------------------------------------------------------------|
G|--------------------------10---------10----------------------------|
D|-------8-------8-------10----10---10----10------10----------10-----|
A|-----8---8---8---8---8----------8------------10-----10---10----10--|
E|---6-------6-------------------------------8-----------8-----------|

I'm on my guard for the rest of the world...

e|-------------------------------------------------------------------|
B|-------------------------------------------------------------------|
G|------------------------------------------------10-----------------|
D|-------8-------8--------10---------10--------10---------10---------|
A|-----8---8---8---8---10----10---10----10---8---------10------------|
E|---6-------6-------8----------8--------------------8---------------|

e|-------------------------------------------------------------------|
B|-------------------------------------------------------------------|
G|-------7-------7---------------------------------------------------|
D|-----7---7---7---7-----8-------8--------10---------10-----10-------|
A|---5-------5---------8---8---8---8---10----10---10----10--10x8-----|
E|-------------------6-------6-------8----------8-----------8--------|

Chorus:

Drop everything now...

e|-------------------------------------------------------------------|
B|-------------------------------------------------------------------|
G|---7-------------10------------------------------------------------|
D|---7-x8---8------10-x8---10----------------------------------------|
A|---5------8-x8---8-------10-x8-------------------------------------|
E|----------6--------------8-----------------------------------------|

'cause I see, sparks fly whenever you smile...

e|-------------------------------------------------------------------|
B|-------------------------------------------------------------------|
G|--------------------------------------10---------------------------|
D|--------------------------------------10x8---10--------------------|
A|---5-5-7-7-8-8-----1-1-3-3-5-5-3-3----8------10-x8-----------------|
E|---------------5-5---------------------------8---------------------|

Get me with those green eyes, baby...

e|-------------------------------------------------------------------|
B|-------------------------------------------------------------------|
G|---7-------------10------------------------------------------------|
D|---7-x8---8------10-x8---10----------------------------------------|
A|---5------8-x8---8-------10-x8-------------------------------------|
E|----------6--------------8-----------------------------------------|

'cause I see, sparks fly whenever you smile...

e|-------------------------------------------------------------------|
B|-------------------------------------------------------------------|
G|--------------------------------------10---------------------------|
D|--------------------------------------10x8---10--------------------|
A|---5-5-7-7-8-8-----1-1-3-3-5-5-3-3----8------10-x8-----------------|
E|---------------5-5---------------------------8---------------------|

Solo:

e|-------------------------------------------------------------------|
B|---------------13-10-------------13-10-----------------------------|
G|---10-12-10-12-------10-12-10-12---------12\14/12v-----------------|
D|-------------------------------------------------------------------|
A|-------------------------------------------------------------------|
E|-------------------------------------------------------------------|

Bridge: (palm mute)

I run my fingers through your hair...

e|-------------------------------------------------------------------|
B|-------------------------------------------------------------------|
G|---7-------------10------------------------------------------------|
D|---7-x4---8------10-x4---10----------------------------------------|[x3]
A|---5------8-x4---8-------10-x8-------------------------------------|
E|----------6--------------8-----------------------------------------|

I'd love to hate it...

e|-------------------------------------------------------------------|
B|-------------------------------------------------------------------|
G|---7-~-----------10-~----------------------------------------------|
D|---7-~----8-~----10-~----10-~--------------------------------------|
A|---5-~----8-~----8--~----10-~--------------------------------------|
E|----------6-~------------8--~--------------------------------------|

Chorus:

e|-------------------------------------------------------------------|
B|-------------------------------------------------------------------|
G|---5h7v------------------------------------------------------------|
D|-------------------------------------------------------------------|
A|-------------------------------------------------------------------|
E|-------------------------------------------------------------------|

'cause I see, sparks fly whenever you smile...

e|-------------------------------------------------------------------|
B|-------------------------------------------------------------------|
G|-------------------------------------------------------------------|
D|----------------------------------------------10-------------------|
A|---5-5-7-7-8-8-----1-1-3-3-5-5-3-3----8[x8]---10-x8----------------|
E|---------------5-5----------------------------8--------------------|

Get me with those green eyes, baby...

e|-------------------------------------------------------------------|
B|-------------------------------------------------------------------|
G|---7-------------10------------------------------------------------|
D|---7-x8---8------10-x8---10----------------------------------------|
A|---5------8-x8---8-------10-x8-------------------------------------|
E|----------6--------------8-----------------------------------------|

'cause I see, sparks fly whenever you smile...

e|-------------------------------------------------------------------|
B|-------------------------------------------------------------------|
G|--------------------------------------10---------------------------|
D|--------------------------------------10x8---10--------------------|
A|---5-5-7-7-8-8-----1-1-3-3-5-5-3-3----8------10-x8-----------------|
E|---------------5-5---------------------------8---------------------|

Intro:

e|-------------------------------------------------------------------|
B|-6-6---6-6\8-6---6---6-6\8-6---6---6-6\8-5-6-6\8-10-8-6------------|
G|-----7-------------7-------------7---------------------------------|
D|-------------------------------------------------------------------|
A|-------------------------------------------------------------------|
E|-------------------------------------------------------------------|

e|-------------------------------------------------------------------|
B|-6-6---6-6\8-6---6---6-6\8-6---6---6-6\8-5-6-6\8-10-8-6------------|
G|-----7-------------7-------------7---------------------7v----------|
D|-------------------------------------------------------------------|
A|-------------------------------------------------------------------|
E|-------------------------------------------------------------------|
Suggest correction
comments
print report bad tab
1 comment total.
0 reply
FL_Bob2002 500 Sep 19, 2015 07:38 PM

Whooo, I guess this is intermediate for sure. Where do you find those power chords at. I like playing them, but I need a lot of practice.
As far a s the song goes I couldnt keep up with it, but I like what you have here, thanks.

guest
You may want to rate the tab now too:
select rating
Wanna post a correction for this tab? Suggest correction