Oops, an error
Loading. Please wait.

Sparks Fly tab

version 3
version 3

Whole song

  • This version of this song is basically the "HardRo... Show more

Interactive

28 views 3 this week
no commentswrite comment
1 2 3 4 5
3 more votes to show rating
add to favorites
×
Save as Personal and add changes to this tab that will be seen only by you. Learn more ›
×
You can save this tab as Personal to edit and correct it or add notes. All changes will be seen only by you. Learn more »
launch autoscroll
font size
0
reset
how to read this tab
guitar tuner
edit
Autoscroll
slow
fast
+/-
esc
set tempo
stop
About this tab version
This version of this song is basically the "HardRock Version" of it. Its pretty cool check it out. Was this info helpful? Yes No
This is the HardRock version of the TaylorSwift song SparksFly!
Its my first time tabbing so hope you like it!

[Pre-Intro]
You'll play open once every time the bass is finished playing all the chords (twice)
e---------------------------------|G------------------------|\
B---------------------------------|D------------------------| \Bass plays this for the
G---------------------------------|A-----------------3(8X)--| /Pre-Intor/intro/verse/chorus 
D---------------------------------|D--0(8X)-8(8X)--3(8X)----|/ you can play 5 on A instead of open on the bass
A---------------------------------|                                                            (optional)
D----------0----------------------|then after playing open twice you'll start playing whats shown under.
_______________________________________________________________________________________________________

[Guitar 1] Distortion with light delay and with medium fuzz.      
e-------------------------------------------------------------|\
B-------------------------------------------------------------| \
G-------------------------------------------------------------|  \4X
D-------------------------------------------------------------|  /
A---------55555555/77777777/88888888/1010101010101010---------| /
D---------0---------------------------------------------------|/

Every second time you play this^^^^ You'll be playing this
e--------------------------------------------------|
B--------------------------------------------------|
G--------------------------------------------------|
D-----------------------------------------------7--|
A---------55555555/77777777/8888888\777777/8-7-8-8-|
D--------------------------------------------------|


[Guitar 2] Distortion
e----------------------------------------------|
B----------------------------------------------|
G----------------------------------------------|
D----------------------------------------------|
A---------12------13--------15--------15-13-12-|
D--------(5)-----(7)-------(8)-------(10)------|



[Intro] 
Guitar's 1&2 Distortion
       DeadNote   Dm        Bb5       F5        C/E    
e-----------------------------------------------------|\
B-----------------------------------------------------| \
G--------XXXX------------10101010--10101010--99999999-|  \2X
D--------XXXX--33333333--88888888--10101010--10101010-|  /
A--------XXXX--00000000--88888888--88888888--77777777-| /
D--------XXXX--00000000--88888888---------------------|/


[Verse] 
Guitar 2 Clean with reverb
e--------5---6---0---0-|\
B--------6---6---6---6-| \
G--------7---7---0---0-|  \2X
D--------7---8---7---7-|  /
A--------0---8---8---7-| /
D--------x---x---x---x-|/

Guitar 1 comes in with distorstion (turn up volume on Guitar)
e------------------|
B--------------6---|
G--------0---0-----|
D--------7--7-7----|
A--------7-7-----7-|
D------------------|

[per-Chorus]

Guitar 1&2 Distortion

I dont really count how many times i strum... so... yeah... ill let yall figure it out
          Bb5   C5   F5  C5  C5 D5                 D5  Bb5    C5 
e---------------------------------------------------------------------------|
B---------------------------------------------------------------------------|
G--------3--33-55--5-----5xx-5s7--------------------7s33333s55555555--------|
D--------33333-55555-3xx-5xx-5s7--(let it ring out)-7s33333s55555555--------|
A--------11111-33333-3xx-3xx-3s5--------------------5s11111s33333333--------|
D--------------------3xx----------------------------------------------------|
        PM_________PM                               PM_____________PM


[Chorus]
(Guitar 1&2) 
Guitar 2 will play somthing els over the main riff every second time its played.
Only play dead note once.
e-----------------------------------------------------|\
B-----------------------------------------------------| \
G--------XXXX------------10101010--10101010--99999999-|  \4X
D--------XXXX--33333333--88888888--10101010--10101010-|  /
A--------XXXX--00000000--88888888--88888888--77777777-| /
D--------XXXX--00000000--88888888---------------------|/


Guitar 2

e----------------------------------------------|
B----------------------------------------------|
G------------------------------55555-----------|
D----------------------333333--55555-----------|
A----5s7s8s7---1s3s5s3-333333--33333-----------|
D----------------------333333------------------|


[Chorus Outro]

Guitar 1 Distortion
                  Dm        Bb5       F5        C/E    
e-----------------------------------------------------|\
B-----------------------------------------------------| \
G------------------------10101010--10101010--99999999-|  \1X
D--------------33333333--88888888--10101010--10101010-|  /
A--------------00000000--88888888--88888888--77777777-| /
D--------------00000000--88888888---------------------|/

Guitar 2 Distortion   
e--------------------------------------|\
B--------------------------------------| \
G--7-----9-----10----12----------------|  \1X
D--x-(8X)x-(8X)x-(8X)x-(8X)------------|  /
A--5-----7-----8-----10----------------| /
D--------------------------------------|/
Suggest correction
Creating personal tab
Creating personal tab
You can edit any tab online and save it as your Personal.

You can edit, replace or remove any tab part or add personal notes – all changes will be seen only by you.

Personal tabs can be accessed anytime from any device, even offline.
Learn more »
Give kudos to tab author, rate the tab!
1 2 3 4 5
comments
print report bad tab
guest
You may want to rate the tab now too:
select rating
Wanna post a correction for this tab? Suggest correction