Oops, an error
Loading. Please wait.

Star Spangled Banner Tab

7,080 views 1 this week
no commentswrite comment
1 2 3 4 5
please rate
add to favorites
launch autoscroll
font size
0
reset
how to read this tab
guitar tuner
Tab Pro tools
  • play this tab
  • loop segment
  • change instrument
  • show fretboard
  • metronome
×
Best way to learn
"Star Spangled Banner"
Autoscroll
slow
fast
+/-
esc
set tempo
stop
Contributor
Difficulty
Capo
novice
2nd fret
Star Spangled Banner

Performed by Taylor Swift at the 2008 World Series


It's played with a capo on the 2nd fret.


E||--------------------|--------------------|
B||-----------3--------|-----------3--------|
G||-----2--2-----2--2--|-----2--2-----2--2--|
D||--0-----------------|--0-----------------|
A||--------------------|--------------------|
E||--------------------|--------------------|
                                   Oh,


-----------------------------|-----------------------------|
-----------3--------------3--|-----------3-----------------|
-----2--2-----2--2-----2-----|-----2--2-----2--2-----2--0--|
--0-----------------0--------|--0-----------------0--------|
-----------------------------|-----------------------------|
-----------------------------|-----------------------------|
  Say      can      you         see               by    the


-----------------------------|-----------------------------|
-----------0-----------------|--------3--3--------------3--|
--------0-----0-----------0--|-----2--------2--2-----2-----|
-----2-----------2-----2-----|--0-----------------0--------|
-----------------------------|-----------------------------|
--0-----------------0--------|-----------------------------|
  dawn's   ear  -   ly    light                   What so


-----------------------------|-----------------------------|
--------3--3-----------3-----|-----------2-----------------|
-----2--------2--2-----------|--------2-----2--2--------2--|
--0-----------------0-----0--|-----2-----------------2-----|
-----------------------------|--0-----------------0--------|
-----------------------------|-----------------------------|
  proud     -    ly we    hailed                 at    the


-----------------------------|-----------------------------|
-----------3--------------3--|--------3--3--------------3--|
-----2--2-----2--2-----2-----|-----2--------2--2-----2-----|
--0-----------------0--------|--0-----------------0--------|
-----------------------------|-----------------------------|
-----------------------------|-----------------------------|
  twi   -  light's  last        gleam -  ing?     Whose broad


-----------------------------|-----------------------------|
--3--------------3--------3--|-----------3--------------3--|
-----2--------2--------2-----|-----2--2-----2--2-----2-----|
--------0-----------0--------|--0-----------------0--------|
-----------0-----------------|-----------------------------|
-----------------------------|-----------------------------|
  stripes  and      bright      stars             thru  the


-----------------------------|-----------------------------|
-----------0-----------------|-----------3--------------3--|
--------0-----0-----------0--|-----2--2-----2--2-----2-----|
-----2-----------2-----2-----|--0-----------------0--------|
--2-----------------2--------|-----------------------------|
-----------------------------|-----------------------------|
  per  -   il   -   ous         fight,            O'er  the 


-----------------------------|-----------------------------|
-----------3-----------------|-----------2--------------2--|
-----2--2-----2--2-----2--0--|--------2-----2--2-----2-----|
--0-----------------0--------|-----2-----------------------|
-----------------------------|--0-----------------0--------|
-----------------------------|-----------------------------|
  ramp  -  arts     we    watched                 were  so


-----------------------------|------------------------|
-----------3--------------3--|--------3--3------------|
-----2--2-----2--2-----2-----|-----2------------------|
--0-----------------0--------|--0---------------------|
-----------------------------|------------------------|
-----------------------------|------------------------|
  gall  -  ant   -  ly          streaming?      And the


----------------------------|----------------------------|
--3--------3--------3-------|--3--------3--------3----0--|
--2--2--2--2--2--2--2----2--|--2--2--2--2--2--2--2----0--|
--0--0--0--0--0--0--0----0--|--0--0--0--0--0--0--0----0--|
--0--0--0--0--0--0--0----0--|--0--0--0--0--0--0--0-------|
----------------------------|----------------------------|
  rock  -  et's     red  glare,                  the bombs


----------------------------|----------------------------|
--2--------2--------2-------|--2--------2--------2-------|
--2--2--2--2--2--2--2----2--|--2--2--2--2--2--2--2----2--|
--2--2--2--2--2--2--2----2--|--2--2--2--2--2--2--2----2--|
--0--0--0--0--0--0--0----0--|--0--0--0--0--0--0--0----0--|
----------------------------|----------------------------|
  burst -  ing      in   air,                    Gave


-----------------------------|-----------------------------|
--3--------3--------3-----0--|--2--------2--------2-----0--|
--2--2--2--2--2--2--2--2--0--|--2--2--2--2--2--2--2--2--0--|
--0--0--0--0--0--0--0--0--0--|--2--2--2--2--2--2--2--2--0--|
--0--0--0--0--0--0--0--0-----|--0--0--0--0--0--0--0--0-----|
-----------------------------|-----------------------------|
  proof    through  the   night                   that our


--------------------0------|-----------------------------|
--3--------3--------0------|--2--------2--------2--------|
--2--2--2--2--2--2--1------|--2--2--2--2--2--2--2--2--2--|
--0--0--0--0--0--0--2------|--2--2--2--2--2--2--2--2--2--|
--0--0--0--0--0--0--2------|--0--0--0--0--0--0--0--0--0--|
---------------------------|-----------------------------|
  flag     was      still     there.            Oh,


-----------------------------|-----------------------------|
--3--------3--------3--------|-----------------------------|
--2--2--2--2--2--2--2--2--2--|-----------------------------|
--0--0--0--0--0--0--0--0--0--|--0--------0--------0--------|
--0--0--0--0--0--0--0--0--0--|--x--------x--------x--------|
-----------------------------|--3--3--3--3--3--3--2--2--2--|
  say      does     that        star     spang -  led


--------------------------|----------------------|
---------3--------3-------|----------------------|
---------0--------0-------|--2-------------------|
--2------2--2--2--2----2--|--2-------------------|
--2------2--2--2--2----2--|--0-------------------|
--0------0--0--0--0----0--|----------------------|
  ban -  ner      yet        wave         O'er the


-----------------------------|----------------------|
--3--------3--------3--------|--3-------------------|
--2--2--2--2--2--2--2--2--2--|--2-------------------|
--0--0--0--0--0--0--0--0--0--|--0-------------------|
--0--0--0--0--0--0--0--0--0--|--0-------------------|
-----------------------------|----------------------|
  land     of    the            free          and the

  
----------------------|----------------------|--2-------------------||
--3-------------------|--2-------------------|--3-------------------||
--2-------------------|--2-------------------|--2-------------------||
--0-------------------|--2-------------------|--0-------------------||
--0-------------------|--0-------------------|--0-------------------||
----------------------|----------------------|----------------------||
  home           of      the                    brave?
comments
We did not receive enough feedback on this tab! Please rate:
print report bad tab
1 2 3 4 5
I want to post or [tab]
guest
You may want to rate the tab now too:
select rating
Please do not post tabs as comments. Select "correction" instead!