Oops, an error
Loading. Please wait.

Starlight Tab

version 1
version 1

Intro

Solo

Interactive

3,675 views 3 this week
no commentswrite comment
1 2 3 4 5
excellent!
x 4
add to favorites
launch autoscroll
font size
0
reset
how to read this tab
guitar tuner
Tab Pro tools
  • play this tab
  • loop segment
  • change instrument
  • show fretboard
  • metronome
Autoscroll
slow
fast
+/-
esc
set tempo
stop
Contributor
Difficulty
intermediate
Starlight by Taylor Swift SOLO

The song is in E (original)

e|--------------------------------------------------------------------|
B|--------10--10--9--------------------------10--10--9--------12------|
G|-----9-------------11--9----------------9------------11--9----------|
D|--9-----------------------9----------9------------------------------|
A|--------------------------------------------------------------------|
E|--------------------------------------------------------------------|

e|----------17--17--16--16---14---------------------------------------|
B|--12--12-----------------------17------------17--16------17--16-----|
G|-----------------------------------16-----------------16---------16-|
D|--------------------------------------------------------------------|
A|--------------------------------------------------------------------|
E|--------------------------------------------------------------------|

e|-------------------21--21--21---------------------------------------|
B|------17--19--21----------------------------------------------------|
G|--16----------------------------------------------------------------|
D|--------------------------------------------------------------------|
A|--------------------------------------------------------------------|
E|--------------------------------------------------------------------|


Hope you like it! Rate:)
comments
print report bad tab
I want to post or [tab]
guest
You may want to rate the tab now too:
select rating
Please do not post tabs as comments. Select "correction" instead!